ISO-10303-21;
HEADER;
/* Generated by software containing ST-Developer
 * from STEP Tools, Inc. (www.steptools.com) 
 */
/* OPTION: using custom schema-name function */

FILE_DESCRIPTION(
/* description */ (''),
/* implementation_level */ '2;1');

FILE_NAME(
/* name */ 'BAS25FGI35.stp',
/* time_stamp */ '2017-10-23T16:42:19+05:00',
/* author */ (''),
/* organization */ (''),
/* preprocessor_version */ 'ST-DEVELOPER v16',
/* originating_system */ 'SIEMENS PLM Software NX 11.0',
/* authorisation */ '');

FILE_SCHEMA (('AUTOMOTIVE_DESIGN { 1 0 10303 214 3 1 1 1 }'));
ENDSEC;

DATA;
#10=CONSTRUCTIVE_GEOMETRY_REPRESENTATION_RELATIONSHIP(
'supplemental geometry','',#32,#11);
#11=CONSTRUCTIVE_GEOMETRY_REPRESENTATION('supplemental geometry',(#141,
#142,#143),#225);
#12=PROPERTY_DEFINITION_REPRESENTATION(#16,#14);
#13=PROPERTY_DEFINITION_REPRESENTATION(#17,#15);
#14=REPRESENTATION('',(#18),#225);
#15=REPRESENTATION('',(#19),#225);
#16=PROPERTY_DEFINITION('pmi validation property','',#23);
#17=PROPERTY_DEFINITION('pmi validation property','',#23);
#18=VALUE_REPRESENTATION_ITEM('number of annotations',COUNT_MEASURE(0.));
#19=VALUE_REPRESENTATION_ITEM('number of views',COUNT_MEASURE(0.));
#20=SHAPE_REPRESENTATION_RELATIONSHIP('None',
'relationship between BAS25FGI35-None and BAS25FGI35-None',#32,#21);
#21=ADVANCED_BREP_SHAPE_REPRESENTATION('BAS25FGI35-None',(#38),#225);
#22=SHAPE_DEFINITION_REPRESENTATION(#23,#32);
#23=PRODUCT_DEFINITION_SHAPE('','',#24);
#24=PRODUCT_DEFINITION(' ','',#26,#25);
#25=PRODUCT_DEFINITION_CONTEXT('part definition',#31,'design');
#26=PRODUCT_DEFINITION_FORMATION_WITH_SPECIFIED_SOURCE(' ',' ',#28,
 .NOT_KNOWN.);
#27=PRODUCT_RELATED_PRODUCT_CATEGORY('part','',(#28));
#28=PRODUCT('BAS25FGI35','BAS25FGI35',' ',(#29));
#29=PRODUCT_CONTEXT(' ',#31,'mechanical');
#30=APPLICATION_PROTOCOL_DEFINITION('international standard',
'automotive_design',2010,#31);
#31=APPLICATION_CONTEXT(
'core data for automotive mechanical design processes');
#32=SHAPE_REPRESENTATION('BAS25FGI35-None',(#140),#225);
#33=SURFACE_STYLE_USAGE(.BOTH.,#34);
#34=SURFACE_SIDE_STYLE('',(#35));
#35=SURFACE_STYLE_FILL_AREA(#36);
#36=FILL_AREA_STYLE('',(#37));
#37=FILL_AREA_STYLE_COLOUR('',#136);
#38=MANIFOLD_SOLID_BREP('NOCUT',#39);
#39=CLOSED_SHELL('',(#58,#59,#60,#61,#62,#63,#64));
#40=CONICAL_SURFACE('',#156,3.,59.);
#41=VERTEX_LOOP('',#107);
#42=CYLINDRICAL_SURFACE('',#154,12.5);
#43=CYLINDRICAL_SURFACE('',#157,3.);
#44=FACE_BOUND('',#74,.T.);
#45=FACE_BOUND('',#75,.T.);
#46=FACE_BOUND('',#77,.T.);
#47=FACE_BOUND('',#78,.T.);
#48=FACE_BOUND('',#79,.T.);
#49=FACE_BOUND('',#41,.T.);
#50=FACE_BOUND('',#80,.T.);
#51=FACE_BOUND('',#81,.T.);
#52=LINE('',#206,#54);
#53=LINE('',#214,#55);
#54=VECTOR('',#172,1.);
#55=VECTOR('',#181,1.);
#56=ELLIPSE('',#146,33.3683395319265,12.5);
#57=ELLIPSE('',#152,119.584652918771,12.5);
#58=ADVANCED_FACE('',(#69),#65,.T.);
#59=ADVANCED_FACE('',(#70),#66,.F.);
#60=ADVANCED_FACE('',(#44,#45),#67,.F.);
#61=ADVANCED_FACE('',(#71),#68,.F.);
#62=ADVANCED_FACE('',(#46,#47),#42,.T.);
#63=ADVANCED_FACE('',(#48,#49),#40,.F.);
#64=ADVANCED_FACE('',(#50,#51),#43,.F.);
#65=PLANE('',#145);
#66=PLANE('',#147);
#67=PLANE('',#151);
#68=PLANE('',#153);
#69=FACE_OUTER_BOUND('',#72,.T.);
#70=FACE_OUTER_BOUND('',#73,.T.);
#71=FACE_OUTER_BOUND('',#76,.T.);
#72=EDGE_LOOP('',(#82));
#73=EDGE_LOOP('',(#83,#84));
#74=EDGE_LOOP('',(#85));
#75=EDGE_LOOP('',(#86,#87,#88,#89));
#76=EDGE_LOOP('',(#90,#91));
#77=EDGE_LOOP('',(#92,#93,#94,#95));
#78=EDGE_LOOP('',(#96));
#79=EDGE_LOOP('',(#97));
#80=EDGE_LOOP('',(#98));
#81=EDGE_LOOP('',(#99));
#82=ORIENTED_EDGE('',*,*,#108,.F.);
#83=ORIENTED_EDGE('',*,*,#109,.F.);
#84=ORIENTED_EDGE('',*,*,#110,.T.);
#85=ORIENTED_EDGE('',*,*,#111,.T.);
#86=ORIENTED_EDGE('',*,*,#112,.T.);
#87=ORIENTED_EDGE('',*,*,#110,.F.);
#88=ORIENTED_EDGE('',*,*,#113,.F.);
#89=ORIENTED_EDGE('',*,*,#114,.T.);
#90=ORIENTED_EDGE('',*,*,#114,.F.);
#91=ORIENTED_EDGE('',*,*,#115,.F.);
#92=ORIENTED_EDGE('',*,*,#115,.T.);
#93=ORIENTED_EDGE('',*,*,#113,.T.);
#94=ORIENTED_EDGE('',*,*,#109,.T.);
#95=ORIENTED_EDGE('',*,*,#112,.F.);
#96=ORIENTED_EDGE('',*,*,#108,.T.);
#97=ORIENTED_EDGE('',*,*,#116,.T.);
#98=ORIENTED_EDGE('',*,*,#116,.F.);
#99=ORIENTED_EDGE('',*,*,#111,.F.);
#100=VERTEX_POINT('',#201);
#101=VERTEX_POINT('',#204);
#102=VERTEX_POINT('',#205);
#103=VERTEX_POINT('',#209);
#104=VERTEX_POINT('',#211);
#105=VERTEX_POINT('',#213);
#106=VERTEX_POINT('',#220);
#107=VERTEX_POINT('',#221);
#108=EDGE_CURVE('',#100,#100,#117,.T.);
#109=EDGE_CURVE('',#101,#102,#56,.T.);
#110=EDGE_CURVE('',#101,#102,#52,.T.);
#111=EDGE_CURVE('',#103,#103,#118,.T.);
#112=EDGE_CURVE('',#104,#102,#119,.T.);
#113=EDGE_CURVE('',#105,#101,#120,.T.);
#114=EDGE_CURVE('',#105,#104,#53,.T.);
#115=EDGE_CURVE('',#104,#105,#57,.T.);
#116=EDGE_CURVE('',#106,#106,#121,.T.);
#117=CIRCLE('',#144,12.5);
#118=CIRCLE('',#148,3.);
#119=CIRCLE('',#149,12.5);
#120=CIRCLE('',#150,12.5);
#121=CIRCLE('',#155,3.);
#122=PRESENTATION_LAYER_ASSIGNMENT('1','Layer 1',(#141,#142,#143));
#123=PRESENTATION_LAYER_ASSIGNMENT('2','Layer 2',(#38));
#124=STYLED_ITEM('',(#128),#141);
#125=STYLED_ITEM('',(#129),#142);
#126=STYLED_ITEM('',(#130),#143);
#127=STYLED_ITEM('',(#131),#38);
#128=PRESENTATION_STYLE_ASSIGNMENT((#132));
#129=PRESENTATION_STYLE_ASSIGNMENT((#133));
#130=PRESENTATION_STYLE_ASSIGNMENT((#134));
#131=PRESENTATION_STYLE_ASSIGNMENT((#33));
#132=CURVE_STYLE('',#137,POSITIVE_LENGTH_MEASURE(0.18),#135);
#133=CURVE_STYLE('',#138,POSITIVE_LENGTH_MEASURE(0.18),#135);
#134=CURVE_STYLE('',#139,POSITIVE_LENGTH_MEASURE(0.18),#135);
#135=COLOUR_RGB('Strong Stone',0.576470588235294,0.54508278019379,0.392156862745098);
#136=COLOUR_RGB('Medium Gray',0.490196078431373,0.490196078431373,0.490196078431373);
#137=DRAUGHTING_PRE_DEFINED_CURVE_FONT('continuous');
#138=DRAUGHTING_PRE_DEFINED_CURVE_FONT('continuous');
#139=DRAUGHTING_PRE_DEFINED_CURVE_FONT('continuous');
#140=AXIS2_PLACEMENT_3D('',#196,#158,#159);
#141=AXIS2_PLACEMENT_3D('MCS',#197,#160,#161);
#142=AXIS2_PLACEMENT_3D('PCS',#198,#162,#163);
#143=AXIS2_PLACEMENT_3D('CSW',#199,#164,#165);
#144=AXIS2_PLACEMENT_3D('',#200,#166,#167);
#145=AXIS2_PLACEMENT_3D('',#202,#168,#169);
#146=AXIS2_PLACEMENT_3D('',#203,#170,#171);
#147=AXIS2_PLACEMENT_3D('',#207,#173,#174);
#148=AXIS2_PLACEMENT_3D('',#208,#175,#176);
#149=AXIS2_PLACEMENT_3D('',#210,#177,#178);
#150=AXIS2_PLACEMENT_3D('',#212,#179,#180);
#151=AXIS2_PLACEMENT_3D('',#215,#182,#183);
#152=AXIS2_PLACEMENT_3D('',#216,#184,#185);
#153=AXIS2_PLACEMENT_3D('',#217,#186,#187);
#154=AXIS2_PLACEMENT_3D('',#218,#188,#189);
#155=AXIS2_PLACEMENT_3D('',#219,#190,#191);
#156=AXIS2_PLACEMENT_3D('',#222,#192,#193);
#157=AXIS2_PLACEMENT_3D('',#223,#194,#195);
#158=DIRECTION('',(0.,0.,1.));
#159=DIRECTION('',(1.,0.,0.));
#160=DIRECTION('',(0.,0.,1.));
#161=DIRECTION('',(1.,0.,0.));
#162=DIRECTION('',(0.,0.,1.));
#163=DIRECTION('',(1.,0.,0.));
#164=DIRECTION('',(0.,0.,1.));
#165=DIRECTION('',(1.,0.,0.));
#166=DIRECTION('',(0.,0.,-1.));
#167=DIRECTION('',(0.,-1.,0.));
#168=DIRECTION('',(0.,0.,1.));
#169=DIRECTION('',(0.,-1.,0.));
#170=DIRECTION('',(0.,0.927183854566793,0.374606593415897));
#171=DIRECTION('',(0.,-0.374606593415897,0.927183854566793));
#172=DIRECTION('',(1.,0.,0.));
#173=DIRECTION('',(0.,0.927183854566793,0.374606593415897));
#174=DIRECTION('',(0.,0.374606593415897,-0.927183854566793));
#175=DIRECTION('',(0.,0.,1.));
#176=DIRECTION('',(1.,0.,0.));
#177=DIRECTION('',(0.,0.,-1.));
#178=DIRECTION('',(0.,1.,0.));
#179=DIRECTION('',(0.,0.,1.));
#180=DIRECTION('',(0.,1.,0.));
#181=DIRECTION('',(1.,0.,0.));
#182=DIRECTION('',(0.,0.,1.));
#183=DIRECTION('',(-1.,0.,0.));
#184=DIRECTION('',(0.,-0.994521895368269,0.104528463267697));
#185=DIRECTION('',(0.,0.104528463267697,0.994521895368269));
#186=DIRECTION('',(0.,-0.994521895368269,0.104528463267697));
#187=DIRECTION('',(0.,0.104528463267697,0.994521895368269));
#188=DIRECTION('',(0.,0.,1.));
#189=DIRECTION('',(1.,0.,0.));
#190=DIRECTION('',(0.,0.,-1.));
#191=DIRECTION('',(1.,0.,0.));
#192=DIRECTION('',(0.,0.,-1.));
#193=DIRECTION('',(-1.,0.,-3.12135456773787E-18));
#194=DIRECTION('',(0.,0.,1.));
#195=DIRECTION('',(1.,0.,0.));
#196=CARTESIAN_POINT('',(0.,0.,0.));
#197=CARTESIAN_POINT('',(0.,0.,0.));
#198=CARTESIAN_POINT('',(0.,0.,0.));
#199=CARTESIAN_POINT('',(0.,5.,-34.));
#200=CARTESIAN_POINT('',(0.,0.,1.));
#201=CARTESIAN_POINT('',(0.,-12.5,1.));
#202=CARTESIAN_POINT('',(8.88178419700125E-16,-8.88178419700125E-16,1.));
#203=CARTESIAN_POINT('',(0.,0.,-36.4750868534168));
#204=CARTESIAN_POINT('',(-12.4599357943771,-1.00000000000016,-34.));
#205=CARTESIAN_POINT('',(12.4599357943771,-1.00000000000017,-34.));
#206=CARTESIAN_POINT('',(12.5,-1.00000000000017,-34.));
#207=CARTESIAN_POINT('',(-15.,-15.14091790423,1.));
#208=CARTESIAN_POINT('',(0.,5.,-34.));
#209=CARTESIAN_POINT('',(3.,5.,-34.));
#210=CARTESIAN_POINT('',(0.,0.,-34.));
#211=CARTESIAN_POINT('',(8.12403840463595,9.5,-34.));
#212=CARTESIAN_POINT('',(0.,0.,-34.));
#213=CARTESIAN_POINT('',(-8.12403840463597,9.5,-34.));
#214=CARTESIAN_POINT('',(-15.,9.5,-34.));
#215=CARTESIAN_POINT('',(12.5,-15.00002462414,-34.));
#216=CARTESIAN_POINT('',(0.,0.,-124.386462315077));
#217=CARTESIAN_POINT('',(-15.,9.5,-34.));
#218=CARTESIAN_POINT('',(0.,0.,-46.));
#219=CARTESIAN_POINT('',(0.,5.,-8.));
#220=CARTESIAN_POINT('',(3.,5.,-8.));
#221=CARTESIAN_POINT('',(0.,5.,-6.19741814291732));
#222=CARTESIAN_POINT('',(0.,5.,-8.));
#223=CARTESIAN_POINT('',(0.,5.,-34.));
#224=MECHANICAL_DESIGN_GEOMETRIC_PRESENTATION_REPRESENTATION('',(#124,#125,
#126,#127),#225);
#225=(
GEOMETRIC_REPRESENTATION_CONTEXT(3)
GLOBAL_UNCERTAINTY_ASSIGNED_CONTEXT((#226))
GLOBAL_UNIT_ASSIGNED_CONTEXT((#232,#228,#227))
REPRESENTATION_CONTEXT('BAS25FGI35','TOP_LEVEL_ASSEMBLY_PART')
);
#226=UNCERTAINTY_MEASURE_WITH_UNIT(LENGTH_MEASURE(2.E-5),#232,
'DISTANCE_ACCURACY_VALUE','Maximum Tolerance applied to model');
#227=(
NAMED_UNIT(*)
SI_UNIT($,.STERADIAN.)
SOLID_ANGLE_UNIT()
);
#228=(
CONVERSION_BASED_UNIT('DEGREE',#230)
NAMED_UNIT(#229)
PLANE_ANGLE_UNIT()
);
#229=DIMENSIONAL_EXPONENTS(0.,0.,0.,0.,0.,0.,0.);
#230=PLANE_ANGLE_MEASURE_WITH_UNIT(PLANE_ANGLE_MEASURE(0.0174532925),#231);
#231=(
NAMED_UNIT(*)
PLANE_ANGLE_UNIT()
SI_UNIT($,.RADIAN.)
);
#232=(
LENGTH_UNIT()
NAMED_UNIT(*)
SI_UNIT(.MILLI.,.METRE.)
);
ENDSEC;
END-ISO-10303-21;
