ISO-10303-21;
HEADER;
/* Generated by software containing ST-Developer
 * from STEP Tools, Inc. (www.steptools.com) 
 */
/* OPTION: using custom schema-name function */

FILE_DESCRIPTION(
/* description */ (''),
/* implementation_level */ '2;1');

FILE_NAME(
/* name */ 'BAS25FGE35.stp',
/* time_stamp */ '2017-10-23T16:42:19+05:00',
/* author */ (''),
/* organization */ (''),
/* preprocessor_version */ 'ST-DEVELOPER v16',
/* originating_system */ 'SIEMENS PLM Software NX 11.0',
/* authorisation */ '');

FILE_SCHEMA (('AUTOMOTIVE_DESIGN { 1 0 10303 214 3 1 1 1 }'));
ENDSEC;

DATA;
#10=CONSTRUCTIVE_GEOMETRY_REPRESENTATION_RELATIONSHIP(
'supplemental geometry','',#32,#11);
#11=CONSTRUCTIVE_GEOMETRY_REPRESENTATION('supplemental geometry',(#190,
#191,#192),#343);
#12=PROPERTY_DEFINITION_REPRESENTATION(#16,#14);
#13=PROPERTY_DEFINITION_REPRESENTATION(#17,#15);
#14=REPRESENTATION('',(#18),#343);
#15=REPRESENTATION('',(#19),#343);
#16=PROPERTY_DEFINITION('pmi validation property','',#23);
#17=PROPERTY_DEFINITION('pmi validation property','',#23);
#18=VALUE_REPRESENTATION_ITEM('number of annotations',COUNT_MEASURE(0.));
#19=VALUE_REPRESENTATION_ITEM('number of views',COUNT_MEASURE(0.));
#20=SHAPE_REPRESENTATION_RELATIONSHIP('None',
'relationship between BAS25FGE35-None and BAS25FGE35-None',#32,#21);
#21=ADVANCED_BREP_SHAPE_REPRESENTATION('BAS25FGE35-None',(#38),#343);
#22=SHAPE_DEFINITION_REPRESENTATION(#23,#32);
#23=PRODUCT_DEFINITION_SHAPE('','',#24);
#24=PRODUCT_DEFINITION(' ','',#26,#25);
#25=PRODUCT_DEFINITION_CONTEXT('part definition',#31,'design');
#26=PRODUCT_DEFINITION_FORMATION_WITH_SPECIFIED_SOURCE(' ',' ',#28,
 .NOT_KNOWN.);
#27=PRODUCT_RELATED_PRODUCT_CATEGORY('part','',(#28));
#28=PRODUCT('BAS25FGE35','BAS25FGE35',' ',(#29));
#29=PRODUCT_CONTEXT(' ',#31,'mechanical');
#30=APPLICATION_PROTOCOL_DEFINITION('international standard',
'automotive_design',2010,#31);
#31=APPLICATION_CONTEXT(
'core data for automotive mechanical design processes');
#32=SHAPE_REPRESENTATION('BAS25FGE35-None',(#189),#343);
#33=SURFACE_STYLE_USAGE(.BOTH.,#34);
#34=SURFACE_SIDE_STYLE('',(#35));
#35=SURFACE_STYLE_FILL_AREA(#36);
#36=FILL_AREA_STYLE('',(#37));
#37=FILL_AREA_STYLE_COLOUR('',#185);
#38=MANIFOLD_SOLID_BREP('NOCUT',#39);
#39=CLOSED_SHELL('',(#63,#64,#65,#66,#67,#68,#69,#70,#71));
#40=CONICAL_SURFACE('',#211,3.,59.);
#41=VERTEX_LOOP('',#148);
#42=FACE_OUTER_BOUND('',#86,.T.);
#43=FACE_OUTER_BOUND('',#87,.T.);
#44=FACE_OUTER_BOUND('',#88,.T.);
#45=FACE_OUTER_BOUND('',#89,.T.);
#46=FACE_OUTER_BOUND('',#90,.T.);
#47=PLANE('',#204);
#48=PLANE('',#205);
#49=PLANE('',#206);
#50=PLANE('',#207);
#51=PLANE('',#208);
#52=PLANE('',#209);
#53=LINE('',#325,#58);
#54=LINE('',#326,#59);
#55=LINE('',#330,#60);
#56=LINE('',#332,#61);
#57=LINE('',#334,#62);
#58=VECTOR('',#243,1.);
#59=VECTOR('',#244,1.);
#60=VECTOR('',#251,1.);
#61=VECTOR('',#252,1.);
#62=VECTOR('',#255,1.);
#63=ADVANCED_FACE('',(#74,#75),#72,.T.);
#64=ADVANCED_FACE('',(#76,#77),#47,.F.);
#65=ADVANCED_FACE('',(#42),#48,.T.);
#66=ADVANCED_FACE('',(#43),#49,.F.);
#67=ADVANCED_FACE('',(#44),#50,.F.);
#68=ADVANCED_FACE('',(#45),#51,.F.);
#69=ADVANCED_FACE('',(#46),#52,.T.);
#70=ADVANCED_FACE('',(#78,#79),#40,.F.);
#71=ADVANCED_FACE('',(#80,#81),#73,.F.);
#72=CYLINDRICAL_SURFACE('',#202,12.5);
#73=CYLINDRICAL_SURFACE('',#212,3.);
#74=FACE_BOUND('',#82,.T.);
#75=FACE_BOUND('',#83,.T.);
#76=FACE_BOUND('',#84,.T.);
#77=FACE_BOUND('',#85,.T.);
#78=FACE_BOUND('',#91,.T.);
#79=FACE_BOUND('',#41,.T.);
#80=FACE_BOUND('',#92,.T.);
#81=FACE_BOUND('',#93,.T.);
#82=EDGE_LOOP('',(#101,#102,#103,#104,#105,#106));
#83=EDGE_LOOP('',(#107,#108,#109,#110));
#84=EDGE_LOOP('',(#111));
#85=EDGE_LOOP('',(#112,#113,#114,#115));
#86=EDGE_LOOP('',(#116,#117));
#87=EDGE_LOOP('',(#118,#119,#120,#121));
#88=EDGE_LOOP('',(#122,#123,#124,#125));
#89=EDGE_LOOP('',(#126,#127,#128));
#90=EDGE_LOOP('',(#129,#130,#131));
#91=EDGE_LOOP('',(#132));
#92=EDGE_LOOP('',(#133));
#93=EDGE_LOOP('',(#134));
#94=B_SPLINE_CURVE_WITH_KNOTS('',3,(#277,#278,#279,#280,#281,#282,#283,
#284,#285,#286,#287,#288,#289,#290,#291,#292,#293,#294,#295,#296,#297,#298,
#299,#300,#301,#302,#303,#304,#305,#306,#307,#308,#309),.UNSPECIFIED.,.F.,
 .F.,(4,1,1,1,1,1,1,1,1,1,1,1,1,1,1,1,1,1,1,1,1,1,1,1,1,1,1,1,1,1,4),(0.,
0.03125,0.0625,0.09375,0.125,0.15625,0.1875,0.21875,0.25,0.28125,0.3125,
0.34375,0.375,0.40625,0.4375,0.5,0.5625,0.59375,0.625,0.65625,0.6875,0.71875,
0.75,0.78125,0.8125,0.84375,0.875,0.90625,0.9375,0.96875,1.),
 .UNSPECIFIED.);
#95=CIRCLE('',#194,12.5);
#96=CIRCLE('',#197,12.5);
#97=CIRCLE('',#198,12.5);
#98=CIRCLE('',#201,12.5);
#99=CIRCLE('',#203,3.);
#100=CIRCLE('',#210,3.);
#101=ORIENTED_EDGE('',*,*,#149,.T.);
#102=ORIENTED_EDGE('',*,*,#150,.F.);
#103=ORIENTED_EDGE('',*,*,#151,.F.);
#104=ORIENTED_EDGE('',*,*,#152,.T.);
#105=ORIENTED_EDGE('',*,*,#153,.T.);
#106=ORIENTED_EDGE('',*,*,#154,.T.);
#107=ORIENTED_EDGE('',*,*,#155,.F.);
#108=ORIENTED_EDGE('',*,*,#156,.F.);
#109=ORIENTED_EDGE('',*,*,#157,.F.);
#110=ORIENTED_EDGE('',*,*,#158,.T.);
#111=ORIENTED_EDGE('',*,*,#159,.T.);
#112=ORIENTED_EDGE('',*,*,#160,.T.);
#113=ORIENTED_EDGE('',*,*,#154,.F.);
#114=ORIENTED_EDGE('',*,*,#161,.F.);
#115=ORIENTED_EDGE('',*,*,#150,.T.);
#116=ORIENTED_EDGE('',*,*,#149,.F.);
#117=ORIENTED_EDGE('',*,*,#160,.F.);
#118=ORIENTED_EDGE('',*,*,#153,.F.);
#119=ORIENTED_EDGE('',*,*,#152,.F.);
#120=ORIENTED_EDGE('',*,*,#151,.T.);
#121=ORIENTED_EDGE('',*,*,#161,.T.);
#122=ORIENTED_EDGE('',*,*,#162,.T.);
#123=ORIENTED_EDGE('',*,*,#155,.T.);
#124=ORIENTED_EDGE('',*,*,#158,.F.);
#125=ORIENTED_EDGE('',*,*,#163,.T.);
#126=ORIENTED_EDGE('',*,*,#162,.F.);
#127=ORIENTED_EDGE('',*,*,#164,.T.);
#128=ORIENTED_EDGE('',*,*,#156,.T.);
#129=ORIENTED_EDGE('',*,*,#164,.F.);
#130=ORIENTED_EDGE('',*,*,#163,.F.);
#131=ORIENTED_EDGE('',*,*,#157,.T.);
#132=ORIENTED_EDGE('',*,*,#165,.T.);
#133=ORIENTED_EDGE('',*,*,#165,.F.);
#134=ORIENTED_EDGE('',*,*,#159,.F.);
#135=VERTEX_POINT('',#271);
#136=VERTEX_POINT('',#272);
#137=VERTEX_POINT('',#274);
#138=VERTEX_POINT('',#276);
#139=VERTEX_POINT('',#310);
#140=VERTEX_POINT('',#312);
#141=VERTEX_POINT('',#315);
#142=VERTEX_POINT('',#316);
#143=VERTEX_POINT('',#318);
#144=VERTEX_POINT('',#320);
#145=VERTEX_POINT('',#324);
#146=VERTEX_POINT('',#331);
#147=VERTEX_POINT('',#338);
#148=VERTEX_POINT('',#339);
#149=EDGE_CURVE('',#135,#136,#166,.T.);
#150=EDGE_CURVE('',#137,#136,#95,.T.);
#151=EDGE_CURVE('',#138,#137,#167,.T.);
#152=EDGE_CURVE('',#138,#139,#94,.T.);
#153=EDGE_CURVE('',#139,#140,#168,.T.);
#154=EDGE_CURVE('',#140,#135,#96,.T.);
#155=EDGE_CURVE('',#141,#142,#97,.T.);
#156=EDGE_CURVE('',#143,#141,#169,.T.);
#157=EDGE_CURVE('',#144,#143,#170,.T.);
#158=EDGE_CURVE('',#144,#142,#98,.T.);
#159=EDGE_CURVE('',#145,#145,#99,.T.);
#160=EDGE_CURVE('',#136,#135,#53,.T.);
#161=EDGE_CURVE('',#137,#140,#54,.T.);
#162=EDGE_CURVE('',#146,#141,#55,.T.);
#163=EDGE_CURVE('',#144,#146,#56,.T.);
#164=EDGE_CURVE('',#146,#143,#57,.T.);
#165=EDGE_CURVE('',#147,#147,#100,.T.);
#166=ELLIPSE('',#193,17.6776695296637,12.5);
#167=ELLIPSE('',#195,119.584652918771,12.5);
#168=ELLIPSE('',#196,119.584652918771,12.5);
#169=ELLIPSE('',#199,24.9999999999992,12.5);
#170=ELLIPSE('',#200,24.9999999999992,12.5);
#171=PRESENTATION_LAYER_ASSIGNMENT('1','Layer 1',(#190,#191,#192));
#172=PRESENTATION_LAYER_ASSIGNMENT('2','Layer 2',(#38));
#173=STYLED_ITEM('',(#177),#190);
#174=STYLED_ITEM('',(#178),#191);
#175=STYLED_ITEM('',(#179),#192);
#176=STYLED_ITEM('',(#180),#38);
#177=PRESENTATION_STYLE_ASSIGNMENT((#181));
#178=PRESENTATION_STYLE_ASSIGNMENT((#182));
#179=PRESENTATION_STYLE_ASSIGNMENT((#183));
#180=PRESENTATION_STYLE_ASSIGNMENT((#33));
#181=CURVE_STYLE('',#186,POSITIVE_LENGTH_MEASURE(0.18),#184);
#182=CURVE_STYLE('',#187,POSITIVE_LENGTH_MEASURE(0.18),#184);
#183=CURVE_STYLE('',#188,POSITIVE_LENGTH_MEASURE(0.18),#184);
#184=COLOUR_RGB('Strong Stone',0.576470588235294,0.54508278019379,0.392156862745098);
#185=COLOUR_RGB('Medium Gray',0.490196078431373,0.490196078431373,0.490196078431373);
#186=DRAUGHTING_PRE_DEFINED_CURVE_FONT('continuous');
#187=DRAUGHTING_PRE_DEFINED_CURVE_FONT('continuous');
#188=DRAUGHTING_PRE_DEFINED_CURVE_FONT('continuous');
#189=AXIS2_PLACEMENT_3D('',#266,#213,#214);
#190=AXIS2_PLACEMENT_3D('MCS',#267,#215,#216);
#191=AXIS2_PLACEMENT_3D('PCS',#268,#217,#218);
#192=AXIS2_PLACEMENT_3D('CSW',#269,#219,#220);
#193=AXIS2_PLACEMENT_3D('',#270,#221,#222);
#194=AXIS2_PLACEMENT_3D('',#273,#223,#224);
#195=AXIS2_PLACEMENT_3D('',#275,#225,#226);
#196=AXIS2_PLACEMENT_3D('',#311,#227,#228);
#197=AXIS2_PLACEMENT_3D('',#313,#229,#230);
#198=AXIS2_PLACEMENT_3D('',#314,#231,#232);
#199=AXIS2_PLACEMENT_3D('',#317,#233,#234);
#200=AXIS2_PLACEMENT_3D('',#319,#235,#236);
#201=AXIS2_PLACEMENT_3D('',#321,#237,#238);
#202=AXIS2_PLACEMENT_3D('',#322,#239,#240);
#203=AXIS2_PLACEMENT_3D('',#323,#241,#242);
#204=AXIS2_PLACEMENT_3D('',#327,#245,#246);
#205=AXIS2_PLACEMENT_3D('',#328,#247,#248);
#206=AXIS2_PLACEMENT_3D('',#329,#249,#250);
#207=AXIS2_PLACEMENT_3D('',#333,#253,#254);
#208=AXIS2_PLACEMENT_3D('',#335,#256,#257);
#209=AXIS2_PLACEMENT_3D('',#336,#258,#259);
#210=AXIS2_PLACEMENT_3D('',#337,#260,#261);
#211=AXIS2_PLACEMENT_3D('',#340,#262,#263);
#212=AXIS2_PLACEMENT_3D('',#341,#264,#265);
#213=DIRECTION('',(0.,0.,1.));
#214=DIRECTION('',(1.,0.,0.));
#215=DIRECTION('',(0.,0.,1.));
#216=DIRECTION('',(1.,0.,0.));
#217=DIRECTION('',(0.,0.,1.));
#218=DIRECTION('',(1.,0.,0.));
#219=DIRECTION('',(0.,0.,1.));
#220=DIRECTION('',(1.,0.,0.));
#221=DIRECTION('',(0.,0.707106781186547,0.707106781186547));
#222=DIRECTION('',(0.,-0.707106781186547,0.707106781186547));
#223=DIRECTION('',(0.,0.,-1.));
#224=DIRECTION('',(0.,-1.,0.));
#225=DIRECTION('',(0.,0.994521895368269,-0.104528463267697));
#226=DIRECTION('',(0.,0.104528463267697,0.994521895368269));
#227=DIRECTION('',(0.,-0.994521895368269,0.104528463267697));
#228=DIRECTION('',(0.,0.104528463267697,0.994521895368269));
#229=DIRECTION('',(0.,0.,1.));
#230=DIRECTION('',(0.,-1.,0.));
#231=DIRECTION('',(0.,0.,1.));
#232=DIRECTION('',(0.,1.,0.));
#233=DIRECTION('',(0.866025403784429,0.,0.500000000000017));
#234=DIRECTION('',(-0.500000000000017,0.,0.866025403784429));
#235=DIRECTION('',(0.,0.866025403784429,-0.500000000000017));
#236=DIRECTION('',(0.,0.500000000000017,0.866025403784429));
#237=DIRECTION('',(0.,0.,-1.));
#238=DIRECTION('',(-0.985096949543545,0.172000000000008,0.));
#239=DIRECTION('',(0.,0.,1.));
#240=DIRECTION('',(-1.,0.,0.));
#241=DIRECTION('',(0.,0.,1.));
#242=DIRECTION('',(1.,0.,0.));
#243=DIRECTION('',(-1.,0.,0.));
#244=DIRECTION('',(-1.,0.,0.));
#245=DIRECTION('',(0.,0.,1.));
#246=DIRECTION('',(1.,0.,0.));
#247=DIRECTION('',(0.,-0.707106781186547,-0.707106781186547));
#248=DIRECTION('',(-1.,0.,0.));
#249=DIRECTION('',(0.,-0.994521895368269,0.104528463267697));
#250=DIRECTION('',(0.,0.104528463267697,0.994521895368269));
#251=DIRECTION('',(0.,-1.,0.));
#252=DIRECTION('',(1.,-2.138730482062E-14,0.));
#253=DIRECTION('',(0.,0.,-1.));
#254=DIRECTION('',(-1.,0.,0.));
#255=DIRECTION('',(-0.44721359549997,0.44721359549997,0.774596669241469));
#256=DIRECTION('',(-0.866025403784429,0.,-0.500000000000017));
#257=DIRECTION('',(-0.500000000000017,0.,0.866025403784429));
#258=DIRECTION('',(0.,0.866025403784429,-0.500000000000017));
#259=DIRECTION('',(0.,0.500000000000017,0.866025403784429));
#260=DIRECTION('',(0.,0.,-1.));
#261=DIRECTION('',(1.,0.,0.));
#262=DIRECTION('',(0.,0.,-1.));
#263=DIRECTION('',(-1.,0.,-3.12135456773787E-18));
#264=DIRECTION('',(0.,0.,1.));
#265=DIRECTION('',(1.,0.,0.));
#266=CARTESIAN_POINT('',(0.,0.,0.));
#267=CARTESIAN_POINT('',(0.,0.,0.));
#268=CARTESIAN_POINT('',(0.,0.,0.));
#269=CARTESIAN_POINT('',(0.,5.,-34.));
#270=CARTESIAN_POINT('',(0.,0.,-34.499999999998));
#271=CARTESIAN_POINT('',(-12.4899959967969,-0.499999999998005,-34.));
#272=CARTESIAN_POINT('',(12.4899959967969,-0.499999999998004,-34.));
#273=CARTESIAN_POINT('',(0.,0.,-34.));
#274=CARTESIAN_POINT('',(8.12403840463595,9.5,-34.));
#275=CARTESIAN_POINT('',(0.,0.,-124.386462315077));
#276=CARTESIAN_POINT('',(7.871585065941,9.710208470968,-31.99999999585));
#277=CARTESIAN_POINT('',(7.871585065941,9.710208470968,-31.99999999585));
#278=CARTESIAN_POINT('',(7.7075937104,9.8431481405,-30.7351635295));
#279=CARTESIAN_POINT('',(7.379610999319,10.09529319409,-28.33616359435));
#280=CARTESIAN_POINT('',(6.887636932698,10.43676869886,-25.08724118978));
#281=CARTESIAN_POINT('',(6.395662866077,10.74498272452,-22.15478061975));
#282=CARTESIAN_POINT('',(5.903688799456,11.02271283155,-19.51235516155));
#283=CARTESIAN_POINT('',(5.411714732834,11.2722025873,-17.13861869775));
#284=CARTESIAN_POINT('',(4.919740666213,11.49528395742,-15.01614123942));
#285=CARTESIAN_POINT('',(4.427766599592,11.69346327809,-13.130590955335));
#286=CARTESIAN_POINT('',(3.93579253297,11.86798424144,-11.470134905049));
#287=CARTESIAN_POINT('',(3.443818466349,12.01987447603,-10.024995856116));
#288=CARTESIAN_POINT('',(2.951844399728,12.1499804821,-8.787119896717));
#289=CARTESIAN_POINT('',(2.459870333106,12.25899424849,-7.7499231928));
#290=CARTESIAN_POINT('',(1.967896266485,12.34747278526,-6.908106147511));
#291=CARTESIAN_POINT('',(1.475922199864,12.4158554406,-6.257488642293));
#292=CARTESIAN_POINT('',(0.8199567777022,12.48067133743,-5.640806577453));
#293=CARTESIAN_POINT('',(0.,12.51288577505,-5.334306677252));
#294=CARTESIAN_POINT('',(-0.8199567777022,12.48067133743,-5.640806577453));
#295=CARTESIAN_POINT('',(-1.475922199864,12.4158554406,-6.257488642293));
#296=CARTESIAN_POINT('',(-1.967896266485,12.34747278526,-6.908106147511));
#297=CARTESIAN_POINT('',(-2.459870333106,12.25899424849,-7.7499231928));
#298=CARTESIAN_POINT('',(-2.951844399728,12.1499804821,-8.787119896717));
#299=CARTESIAN_POINT('',(-3.443818466349,12.01987447603,-10.024995856116));
#300=CARTESIAN_POINT('',(-3.93579253297,11.86798424144,-11.470134905049));
#301=CARTESIAN_POINT('',(-4.427766599592,11.69346327809,-13.130590955335));
#302=CARTESIAN_POINT('',(-4.919740666213,11.49528395742,-15.01614123942));
#303=CARTESIAN_POINT('',(-5.411714732834,11.2722025873,-17.13861869775));
#304=CARTESIAN_POINT('',(-5.903688799456,11.02271283155,-19.51235516155));
#305=CARTESIAN_POINT('',(-6.395662866077,10.74498272452,-22.15478061975));
#306=CARTESIAN_POINT('',(-6.887636932698,10.43676869886,-25.08724118978));
#307=CARTESIAN_POINT('',(-7.379610999319,10.09529319409,-28.33616359435));
#308=CARTESIAN_POINT('',(-7.7075937104,9.8431481405,-30.7351635295));
#309=CARTESIAN_POINT('',(-7.871585065941,9.710208470968,-31.99999999585));
#310=CARTESIAN_POINT('',(-7.871585065941,9.710208470968,-31.99999999585));
#311=CARTESIAN_POINT('',(0.,0.,-124.386462315077));
#312=CARTESIAN_POINT('',(-8.12403840463597,9.5,-34.));
#313=CARTESIAN_POINT('',(0.,0.,-34.));
#314=CARTESIAN_POINT('',(0.,0.,0.999999999999997));
#315=CARTESIAN_POINT('',(-12.1499999999956,-2.9372606285634,1.));
#316=CARTESIAN_POINT('',(-2.93726062856344,12.1499999999955,1.));
#317=CARTESIAN_POINT('',(0.,0.,-20.0444173119532));
#318=CARTESIAN_POINT('',(-12.177071733469,-2.82292826652608,1.0468896178249));
#319=CARTESIAN_POINT('',(0.,0.,5.93634480157019));
#320=CARTESIAN_POINT('',(-12.1707641502093,-2.84999999999977,0.999999999999954));
#321=CARTESIAN_POINT('',(0.,0.,1.));
#322=CARTESIAN_POINT('',(0.,0.,-46.));
#323=CARTESIAN_POINT('',(0.,5.,-34.));
#324=CARTESIAN_POINT('',(3.,5.,-34.));
#325=CARTESIAN_POINT('',(10.48808847821,-0.5,-34.));
#326=CARTESIAN_POINT('',(-12.5,9.5,-34.));
#327=CARTESIAN_POINT('',(-12.5,15.00002462414,-34.));
#328=CARTESIAN_POINT('',(2.39808173319E-14,-0.919481545728,-33.58051845427));
#329=CARTESIAN_POINT('',(-15.,9.5,-34.));
#330=CARTESIAN_POINT('',(-12.1499999999955,15.0001959944,1.));
#331=CARTESIAN_POINT('',(-12.1499999999978,-2.85,1.));
#332=CARTESIAN_POINT('',(-12.17076415021,-2.85,1.));
#333=CARTESIAN_POINT('',(0.,0.,1.));
#334=CARTESIAN_POINT('',(-15.0734068973832,0.0734068973882035,6.06348927747255));
#335=CARTESIAN_POINT('',(-11.34170962313,15.0001959944,-0.4));
#336=CARTESIAN_POINT('',(-12.5,-3.658290376865,-0.4));
#337=CARTESIAN_POINT('',(0.,5.,-8.));
#338=CARTESIAN_POINT('',(3.,5.,-8.));
#339=CARTESIAN_POINT('',(0.,5.,-6.19741814291732));
#340=CARTESIAN_POINT('',(0.,5.,-8.));
#341=CARTESIAN_POINT('',(0.,5.,-34.));
#342=MECHANICAL_DESIGN_GEOMETRIC_PRESENTATION_REPRESENTATION('',(#173,#174,
#175,#176),#343);
#343=(
GEOMETRIC_REPRESENTATION_CONTEXT(3)
GLOBAL_UNCERTAINTY_ASSIGNED_CONTEXT((#344))
GLOBAL_UNIT_ASSIGNED_CONTEXT((#350,#346,#345))
REPRESENTATION_CONTEXT('BAS25FGE35','TOP_LEVEL_ASSEMBLY_PART')
);
#344=UNCERTAINTY_MEASURE_WITH_UNIT(LENGTH_MEASURE(2.E-5),#350,
'DISTANCE_ACCURACY_VALUE','Maximum Tolerance applied to model');
#345=(
NAMED_UNIT(*)
SI_UNIT($,.STERADIAN.)
SOLID_ANGLE_UNIT()
);
#346=(
CONVERSION_BASED_UNIT('DEGREE',#348)
NAMED_UNIT(#347)
PLANE_ANGLE_UNIT()
);
#347=DIMENSIONAL_EXPONENTS(0.,0.,0.,0.,0.,0.,0.);
#348=PLANE_ANGLE_MEASURE_WITH_UNIT(PLANE_ANGLE_MEASURE(0.0174532925),#349);
#349=(
NAMED_UNIT(*)
PLANE_ANGLE_UNIT()
SI_UNIT($,.RADIAN.)
);
#350=(
LENGTH_UNIT()
NAMED_UNIT(*)
SI_UNIT(.MILLI.,.METRE.)
);
ENDSEC;
END-ISO-10303-21;
