ISO-10303-21;
HEADER;
/* Generated by software containing ST-Developer
 * from STEP Tools, Inc. (www.steptools.com) 
 */
/* OPTION: using custom schema-name function */

FILE_DESCRIPTION(
/* description */ (''),
/* implementation_level */ '2;1');

FILE_NAME(
/* name */ 'BAS25MH1660.stp',
/* time_stamp */ '2017-10-23T16:42:19+05:00',
/* author */ (''),
/* organization */ (''),
/* preprocessor_version */ 'ST-DEVELOPER v16',
/* originating_system */ 'SIEMENS PLM Software NX 11.0',
/* authorisation */ '');

FILE_SCHEMA (('AUTOMOTIVE_DESIGN { 1 0 10303 214 3 1 1 1 }'));
ENDSEC;

DATA;
#10=CONSTRUCTIVE_GEOMETRY_REPRESENTATION_RELATIONSHIP(
'supplemental geometry','',#32,#11);
#11=CONSTRUCTIVE_GEOMETRY_REPRESENTATION('supplemental geometry',(#324,
#325,#326),#547);
#12=PROPERTY_DEFINITION_REPRESENTATION(#16,#14);
#13=PROPERTY_DEFINITION_REPRESENTATION(#17,#15);
#14=REPRESENTATION('',(#18),#547);
#15=REPRESENTATION('',(#19),#547);
#16=PROPERTY_DEFINITION('pmi validation property','',#23);
#17=PROPERTY_DEFINITION('pmi validation property','',#23);
#18=VALUE_REPRESENTATION_ITEM('number of annotations',COUNT_MEASURE(0.));
#19=VALUE_REPRESENTATION_ITEM('number of views',COUNT_MEASURE(0.));
#20=SHAPE_REPRESENTATION_RELATIONSHIP('None',
'relationship between BAS25MH1660-None and BAS25MH1660-None',#32,#21);
#21=ADVANCED_BREP_SHAPE_REPRESENTATION('BAS25MH1660-None',(#38),#547);
#22=SHAPE_DEFINITION_REPRESENTATION(#23,#32);
#23=PRODUCT_DEFINITION_SHAPE('','',#24);
#24=PRODUCT_DEFINITION(' ','',#26,#25);
#25=PRODUCT_DEFINITION_CONTEXT('part definition',#31,'design');
#26=PRODUCT_DEFINITION_FORMATION_WITH_SPECIFIED_SOURCE(' ',' ',#28,
 .NOT_KNOWN.);
#27=PRODUCT_RELATED_PRODUCT_CATEGORY('part','',(#28));
#28=PRODUCT('BAS25MH1660','BAS25MH1660',' ',(#29));
#29=PRODUCT_CONTEXT(' ',#31,'mechanical');
#30=APPLICATION_PROTOCOL_DEFINITION('international standard',
'automotive_design',2010,#31);
#31=APPLICATION_CONTEXT(
'core data for automotive mechanical design processes');
#32=SHAPE_REPRESENTATION('BAS25MH1660-None',(#323),#547);
#33=SURFACE_STYLE_USAGE(.BOTH.,#34);
#34=SURFACE_SIDE_STYLE('',(#35));
#35=SURFACE_STYLE_FILL_AREA(#36);
#36=FILL_AREA_STYLE('',(#37));
#37=FILL_AREA_STYLE_COLOUR('',#319);
#38=MANIFOLD_SOLID_BREP('NOCUT',#39);
#39=CLOSED_SHELL('',(#62,#63,#64,#65,#66,#67,#68,#69,#70,#71,#72,#73,#74,
#75,#76,#77));
#40=B_SPLINE_CURVE_WITH_KNOTS('',3,(#494,#495,#496,#497,#498,#499,#500,
#501,#502,#503,#504,#505,#506,#507,#508,#509),.UNSPECIFIED.,.F.,.F.,(4,
3,3,3,3,4),(0.,0.209638915206576,0.418781770441508,0.635358841682268,0.856223934568967,
1.),.UNSPECIFIED.);
#41=B_SPLINE_CURVE_WITH_KNOTS('',3,(#513,#514,#515,#516,#517,#518,#519,
#520,#521,#522,#523,#524,#525,#526,#527,#528),.UNSPECIFIED.,.F.,.F.,(4,
3,3,3,3,4),(0.,0.203995523357086,0.407406780201457,0.619520696237713,0.840655898042546,
1.),.UNSPECIFIED.);
#42=CONICAL_SURFACE('',#341,10.24999999865,44.99999999623);
#43=ELLIPSE('',#337,8.5134221798074,8.);
#44=ELLIPSE('',#346,2.62865556059562,2.5);
#45=ELLIPSE('',#347,2.62865556059562,2.5);
#46=CYLINDRICAL_SURFACE('',#330,12.5);
#47=CYLINDRICAL_SURFACE('',#343,8.);
#48=CYLINDRICAL_SURFACE('',#349,2.5);
#49=CYLINDRICAL_SURFACE('',#350,2.5);
#50=FACE_BOUND('',#103,.T.);
#51=FACE_BOUND('',#104,.T.);
#52=FACE_BOUND('',#111,.T.);
#53=FACE_BOUND('',#112,.T.);
#54=FACE_BOUND('',#113,.T.);
#55=FACE_BOUND('',#114,.T.);
#56=CIRCLE('',#328,12.5);
#57=CIRCLE('',#329,12.5);
#58=CIRCLE('',#333,8.);
#59=CIRCLE('',#335,8.);
#60=CIRCLE('',#340,8.);
#61=CIRCLE('',#342,8.);
#62=ADVANCED_FACE('',(#89),#78,.T.);
#63=ADVANCED_FACE('',(#50,#51),#46,.T.);
#64=ADVANCED_FACE('',(#90),#79,.F.);
#65=ADVANCED_FACE('',(#91),#80,.T.);
#66=ADVANCED_FACE('',(#92),#81,.F.);
#67=ADVANCED_FACE('',(#93),#82,.F.);
#68=ADVANCED_FACE('',(#94),#83,.F.);
#69=ADVANCED_FACE('',(#95),#84,.F.);
#70=ADVANCED_FACE('',(#52,#53),#42,.T.);
#71=ADVANCED_FACE('',(#54,#55),#47,.T.);
#72=ADVANCED_FACE('',(#96),#85,.T.);
#73=ADVANCED_FACE('',(#97),#86,.F.);
#74=ADVANCED_FACE('',(#98),#87,.T.);
#75=ADVANCED_FACE('',(#99),#48,.F.);
#76=ADVANCED_FACE('',(#100),#49,.F.);
#77=ADVANCED_FACE('',(#101),#88,.F.);
#78=PLANE('',#327);
#79=PLANE('',#331);
#80=PLANE('',#332);
#81=PLANE('',#334);
#82=PLANE('',#336);
#83=PLANE('',#338);
#84=PLANE('',#339);
#85=PLANE('',#344);
#86=PLANE('',#345);
#87=PLANE('',#348);
#88=PLANE('',#351);
#89=FACE_OUTER_BOUND('',#102,.T.);
#90=FACE_OUTER_BOUND('',#105,.T.);
#91=FACE_OUTER_BOUND('',#106,.T.);
#92=FACE_OUTER_BOUND('',#107,.T.);
#93=FACE_OUTER_BOUND('',#108,.T.);
#94=FACE_OUTER_BOUND('',#109,.T.);
#95=FACE_OUTER_BOUND('',#110,.T.);
#96=FACE_OUTER_BOUND('',#115,.T.);
#97=FACE_OUTER_BOUND('',#116,.T.);
#98=FACE_OUTER_BOUND('',#117,.T.);
#99=FACE_OUTER_BOUND('',#118,.T.);
#100=FACE_OUTER_BOUND('',#119,.T.);
#101=FACE_OUTER_BOUND('',#120,.T.);
#102=EDGE_LOOP('',(#121,#122,#123,#124,#125,#126));
#103=EDGE_LOOP('',(#127));
#104=EDGE_LOOP('',(#128));
#105=EDGE_LOOP('',(#129,#130,#131,#132));
#106=EDGE_LOOP('',(#133,#134,#135,#136,#137,#138));
#107=EDGE_LOOP('',(#139,#140,#141,#142));
#108=EDGE_LOOP('',(#143,#144,#145,#146,#147,#148));
#109=EDGE_LOOP('',(#149,#150,#151,#152));
#110=EDGE_LOOP('',(#153,#154,#155,#156));
#111=EDGE_LOOP('',(#157));
#112=EDGE_LOOP('',(#158));
#113=EDGE_LOOP('',(#159,#160,#161,#162,#163,#164,#165,#166,#167,#168));
#114=EDGE_LOOP('',(#169));
#115=EDGE_LOOP('',(#170));
#116=EDGE_LOOP('',(#171,#172,#173,#174));
#117=EDGE_LOOP('',(#175,#176,#177,#178,#179,#180));
#118=EDGE_LOOP('',(#181,#182,#183,#184));
#119=EDGE_LOOP('',(#185,#186,#187,#188));
#120=EDGE_LOOP('',(#189,#190,#191,#192));
#121=ORIENTED_EDGE('',*,*,#218,.T.);
#122=ORIENTED_EDGE('',*,*,#219,.F.);
#123=ORIENTED_EDGE('',*,*,#220,.F.);
#124=ORIENTED_EDGE('',*,*,#221,.T.);
#125=ORIENTED_EDGE('',*,*,#222,.F.);
#126=ORIENTED_EDGE('',*,*,#223,.T.);
#127=ORIENTED_EDGE('',*,*,#224,.T.);
#128=ORIENTED_EDGE('',*,*,#225,.T.);
#129=ORIENTED_EDGE('',*,*,#226,.F.);
#130=ORIENTED_EDGE('',*,*,#227,.T.);
#131=ORIENTED_EDGE('',*,*,#228,.T.);
#132=ORIENTED_EDGE('',*,*,#229,.F.);
#133=ORIENTED_EDGE('',*,*,#230,.T.);
#134=ORIENTED_EDGE('',*,*,#231,.T.);
#135=ORIENTED_EDGE('',*,*,#232,.T.);
#136=ORIENTED_EDGE('',*,*,#227,.F.);
#137=ORIENTED_EDGE('',*,*,#233,.T.);
#138=ORIENTED_EDGE('',*,*,#220,.T.);
#139=ORIENTED_EDGE('',*,*,#233,.F.);
#140=ORIENTED_EDGE('',*,*,#226,.T.);
#141=ORIENTED_EDGE('',*,*,#234,.F.);
#142=ORIENTED_EDGE('',*,*,#221,.F.);
#143=ORIENTED_EDGE('',*,*,#235,.T.);
#144=ORIENTED_EDGE('',*,*,#236,.F.);
#145=ORIENTED_EDGE('',*,*,#237,.F.);
#146=ORIENTED_EDGE('',*,*,#230,.F.);
#147=ORIENTED_EDGE('',*,*,#219,.T.);
#148=ORIENTED_EDGE('',*,*,#238,.F.);
#149=ORIENTED_EDGE('',*,*,#239,.T.);
#150=ORIENTED_EDGE('',*,*,#228,.F.);
#151=ORIENTED_EDGE('',*,*,#232,.F.);
#152=ORIENTED_EDGE('',*,*,#240,.F.);
#153=ORIENTED_EDGE('',*,*,#231,.F.);
#154=ORIENTED_EDGE('',*,*,#237,.T.);
#155=ORIENTED_EDGE('',*,*,#241,.F.);
#156=ORIENTED_EDGE('',*,*,#240,.T.);
#157=ORIENTED_EDGE('',*,*,#242,.T.);
#158=ORIENTED_EDGE('',*,*,#224,.F.);
#159=ORIENTED_EDGE('',*,*,#243,.T.);
#160=ORIENTED_EDGE('',*,*,#244,.F.);
#161=ORIENTED_EDGE('',*,*,#245,.F.);
#162=ORIENTED_EDGE('',*,*,#246,.F.);
#163=ORIENTED_EDGE('',*,*,#222,.T.);
#164=ORIENTED_EDGE('',*,*,#234,.T.);
#165=ORIENTED_EDGE('',*,*,#229,.T.);
#166=ORIENTED_EDGE('',*,*,#239,.F.);
#167=ORIENTED_EDGE('',*,*,#241,.T.);
#168=ORIENTED_EDGE('',*,*,#236,.T.);
#169=ORIENTED_EDGE('',*,*,#242,.F.);
#170=ORIENTED_EDGE('',*,*,#225,.F.);
#171=ORIENTED_EDGE('',*,*,#247,.F.);
#172=ORIENTED_EDGE('',*,*,#248,.F.);
#173=ORIENTED_EDGE('',*,*,#243,.F.);
#174=ORIENTED_EDGE('',*,*,#235,.F.);
#175=ORIENTED_EDGE('',*,*,#238,.T.);
#176=ORIENTED_EDGE('',*,*,#218,.F.);
#177=ORIENTED_EDGE('',*,*,#249,.T.);
#178=ORIENTED_EDGE('',*,*,#250,.F.);
#179=ORIENTED_EDGE('',*,*,#251,.T.);
#180=ORIENTED_EDGE('',*,*,#247,.T.);
#181=ORIENTED_EDGE('',*,*,#244,.T.);
#182=ORIENTED_EDGE('',*,*,#248,.T.);
#183=ORIENTED_EDGE('',*,*,#251,.F.);
#184=ORIENTED_EDGE('',*,*,#252,.F.);
#185=ORIENTED_EDGE('',*,*,#246,.T.);
#186=ORIENTED_EDGE('',*,*,#253,.F.);
#187=ORIENTED_EDGE('',*,*,#249,.F.);
#188=ORIENTED_EDGE('',*,*,#223,.F.);
#189=ORIENTED_EDGE('',*,*,#245,.T.);
#190=ORIENTED_EDGE('',*,*,#252,.T.);
#191=ORIENTED_EDGE('',*,*,#250,.T.);
#192=ORIENTED_EDGE('',*,*,#253,.T.);
#193=VERTEX_POINT('',#440);
#194=VERTEX_POINT('',#441);
#195=VERTEX_POINT('',#443);
#196=VERTEX_POINT('',#445);
#197=VERTEX_POINT('',#447);
#198=VERTEX_POINT('',#449);
#199=VERTEX_POINT('',#453);
#200=VERTEX_POINT('',#455);
#201=VERTEX_POINT('',#458);
#202=VERTEX_POINT('',#459);
#203=VERTEX_POINT('',#461);
#204=VERTEX_POINT('',#463);
#205=VERTEX_POINT('',#467);
#206=VERTEX_POINT('',#469);
#207=VERTEX_POINT('',#476);
#208=VERTEX_POINT('',#477);
#209=VERTEX_POINT('',#479);
#210=VERTEX_POINT('',#484);
#211=VERTEX_POINT('',#490);
#212=VERTEX_POINT('',#493);
#213=VERTEX_POINT('',#510);
#214=VERTEX_POINT('',#512);
#215=VERTEX_POINT('',#532);
#216=VERTEX_POINT('',#536);
#217=VERTEX_POINT('',#538);
#218=EDGE_CURVE('',#193,#194,#254,.T.);
#219=EDGE_CURVE('',#195,#194,#255,.T.);
#220=EDGE_CURVE('',#196,#195,#256,.T.);
#221=EDGE_CURVE('',#196,#197,#257,.T.);
#222=EDGE_CURVE('',#198,#197,#258,.T.);
#223=EDGE_CURVE('',#198,#193,#259,.T.);
#224=EDGE_CURVE('',#199,#199,#56,.T.);
#225=EDGE_CURVE('',#200,#200,#57,.T.);
#226=EDGE_CURVE('',#201,#202,#260,.T.);
#227=EDGE_CURVE('',#201,#203,#261,.T.);
#228=EDGE_CURVE('',#203,#204,#262,.T.);
#229=EDGE_CURVE('',#202,#204,#263,.T.);
#230=EDGE_CURVE('',#195,#205,#264,.T.);
#231=EDGE_CURVE('',#205,#206,#265,.T.);
#232=EDGE_CURVE('',#206,#203,#266,.T.);
#233=EDGE_CURVE('',#201,#196,#267,.T.);
#234=EDGE_CURVE('',#197,#202,#58,.T.);
#235=EDGE_CURVE('',#207,#208,#268,.T.);
#236=EDGE_CURVE('',#209,#208,#59,.T.);
#237=EDGE_CURVE('',#205,#209,#269,.T.);
#238=EDGE_CURVE('',#207,#194,#270,.T.);
#239=EDGE_CURVE('',#210,#204,#43,.T.);
#240=EDGE_CURVE('',#210,#206,#271,.T.);
#241=EDGE_CURVE('',#210,#209,#272,.T.);
#242=EDGE_CURVE('',#211,#211,#60,.T.);
#243=EDGE_CURVE('',#208,#212,#273,.T.);
#244=EDGE_CURVE('',#213,#212,#40,.T.);
#245=EDGE_CURVE('',#214,#213,#61,.T.);
#246=EDGE_CURVE('',#198,#214,#41,.T.);
#247=EDGE_CURVE('',#215,#207,#274,.T.);
#248=EDGE_CURVE('',#212,#215,#275,.T.);
#249=EDGE_CURVE('',#193,#216,#44,.T.);
#250=EDGE_CURVE('',#217,#216,#276,.T.);
#251=EDGE_CURVE('',#217,#215,#45,.T.);
#252=EDGE_CURVE('',#213,#217,#277,.T.);
#253=EDGE_CURVE('',#216,#214,#278,.T.);
#254=LINE('',#439,#279);
#255=LINE('',#442,#280);
#256=LINE('',#444,#281);
#257=LINE('',#446,#282);
#258=LINE('',#448,#283);
#259=LINE('',#450,#284);
#260=LINE('',#457,#285);
#261=LINE('',#460,#286);
#262=LINE('',#462,#287);
#263=LINE('',#464,#288);
#264=LINE('',#466,#289);
#265=LINE('',#468,#290);
#266=LINE('',#470,#291);
#267=LINE('',#471,#292);
#268=LINE('',#475,#293);
#269=LINE('',#480,#294);
#270=LINE('',#481,#295);
#271=LINE('',#485,#296);
#272=LINE('',#487,#297);
#273=LINE('',#492,#298);
#274=LINE('',#531,#299);
#275=LINE('',#533,#300);
#276=LINE('',#537,#301);
#277=LINE('',#541,#302);
#278=LINE('',#543,#303);
#279=VECTOR('',#360,1.);
#280=VECTOR('',#361,1.);
#281=VECTOR('',#362,1.);
#282=VECTOR('',#363,1.);
#283=VECTOR('',#364,1.);
#284=VECTOR('',#365,1.);
#285=VECTOR('',#374,1.);
#286=VECTOR('',#375,1.);
#287=VECTOR('',#376,1.);
#288=VECTOR('',#377,1.);
#289=VECTOR('',#380,1.);
#290=VECTOR('',#381,1.);
#291=VECTOR('',#382,1.);
#292=VECTOR('',#383,1.);
#293=VECTOR('',#390,1.);
#294=VECTOR('',#393,1.);
#295=VECTOR('',#394,1.);
#296=VECTOR('',#399,1.);
#297=VECTOR('',#402,1.);
#298=VECTOR('',#409,1.);
#299=VECTOR('',#416,1.);
#300=VECTOR('',#417,1.);
#301=VECTOR('',#422,1.);
#302=VECTOR('',#427,1.);
#303=VECTOR('',#430,1.);
#304=PRESENTATION_LAYER_ASSIGNMENT('1','Layer 1',(#324,#325,#326));
#305=PRESENTATION_LAYER_ASSIGNMENT('2','Layer 2',(#38));
#306=STYLED_ITEM('',(#310),#324);
#307=STYLED_ITEM('',(#311),#325);
#308=STYLED_ITEM('',(#312),#326);
#309=STYLED_ITEM('',(#313),#38);
#310=PRESENTATION_STYLE_ASSIGNMENT((#314));
#311=PRESENTATION_STYLE_ASSIGNMENT((#315));
#312=PRESENTATION_STYLE_ASSIGNMENT((#316));
#313=PRESENTATION_STYLE_ASSIGNMENT((#33));
#314=CURVE_STYLE('',#320,POSITIVE_LENGTH_MEASURE(0.18),#317);
#315=CURVE_STYLE('',#321,POSITIVE_LENGTH_MEASURE(0.18),#318);
#316=CURVE_STYLE('',#322,POSITIVE_LENGTH_MEASURE(0.18),#318);
#317=COLOUR_RGB('Strong Stone',0.576470588235294,0.54508278019379,0.392156862745098);
#318=COLOUR_RGB('Medium Maroon',0.6,0.4,0.4);
#319=COLOUR_RGB('Medium Gray',0.490196078431373,0.490196078431373,0.490196078431373);
#320=DRAUGHTING_PRE_DEFINED_CURVE_FONT('continuous');
#321=DRAUGHTING_PRE_DEFINED_CURVE_FONT('continuous');
#322=DRAUGHTING_PRE_DEFINED_CURVE_FONT('continuous');
#323=AXIS2_PLACEMENT_3D('',#435,#352,#353);
#324=AXIS2_PLACEMENT_3D('MCS',#436,#354,#355);
#325=AXIS2_PLACEMENT_3D('CSW',#437,#356,#357);
#326=AXIS2_PLACEMENT_3D('PCS',#438,#358,#359);
#327=AXIS2_PLACEMENT_3D('',#451,#366,#367);
#328=AXIS2_PLACEMENT_3D('',#452,#368,#369);
#329=AXIS2_PLACEMENT_3D('',#454,#370,#371);
#330=AXIS2_PLACEMENT_3D('',#456,#372,#373);
#331=AXIS2_PLACEMENT_3D('',#465,#378,#379);
#332=AXIS2_PLACEMENT_3D('',#472,#384,#385);
#333=AXIS2_PLACEMENT_3D('',#473,#386,#387);
#334=AXIS2_PLACEMENT_3D('',#474,#388,#389);
#335=AXIS2_PLACEMENT_3D('',#478,#391,#392);
#336=AXIS2_PLACEMENT_3D('',#482,#395,#396);
#337=AXIS2_PLACEMENT_3D('',#483,#397,#398);
#338=AXIS2_PLACEMENT_3D('',#486,#400,#401);
#339=AXIS2_PLACEMENT_3D('',#488,#403,#404);
#340=AXIS2_PLACEMENT_3D('',#489,#405,#406);
#341=AXIS2_PLACEMENT_3D('',#491,#407,#408);
#342=AXIS2_PLACEMENT_3D('',#511,#410,#411);
#343=AXIS2_PLACEMENT_3D('',#529,#412,#413);
#344=AXIS2_PLACEMENT_3D('',#530,#414,#415);
#345=AXIS2_PLACEMENT_3D('',#534,#418,#419);
#346=AXIS2_PLACEMENT_3D('',#535,#420,#421);
#347=AXIS2_PLACEMENT_3D('',#539,#423,#424);
#348=AXIS2_PLACEMENT_3D('',#540,#425,#426);
#349=AXIS2_PLACEMENT_3D('',#542,#428,#429);
#350=AXIS2_PLACEMENT_3D('',#544,#431,#432);
#351=AXIS2_PLACEMENT_3D('',#545,#433,#434);
#352=DIRECTION('',(0.,0.,1.));
#353=DIRECTION('',(1.,0.,0.));
#354=DIRECTION('',(0.,0.,1.));
#355=DIRECTION('',(1.,0.,0.));
#356=DIRECTION('',(0.,0.,1.));
#357=DIRECTION('',(-3.51436609374757E-15,-1.,0.));
#358=DIRECTION('',(0.,0.,1.));
#359=DIRECTION('',(1.,0.,0.));
#360=DIRECTION('',(0.,0.,-1.));
#361=DIRECTION('',(-0.309016994374891,0.951056516295172,0.));
#362=DIRECTION('',(0.,0.,1.));
#363=DIRECTION('',(-0.309016994374891,0.951056516295172,0.));
#364=DIRECTION('',(6.510775261827E-11,-7.868598400368E-11,-1.));
#365=DIRECTION('',(0.309016994374891,-0.951056516295172,0.));
#366=DIRECTION('',(0.951056516295172,0.309016994374891,0.));
#367=DIRECTION('',(0.309016994374891,-0.951056516295172,0.));
#368=DIRECTION('',(0.,0.,1.));
#369=DIRECTION('',(0.,-1.,0.));
#370=DIRECTION('',(0.,0.,-1.));
#371=DIRECTION('',(1.,0.,0.));
#372=DIRECTION('',(0.,0.,-1.));
#373=DIRECTION('',(0.,-1.,0.));
#374=DIRECTION('',(0.,-1.,0.));
#375=DIRECTION('',(0.,0.,1.));
#376=DIRECTION('',(0.,-1.,0.));
#377=DIRECTION('',(0.,-1.360794597719E-10,1.));
#378=DIRECTION('',(-1.,0.,0.));
#379=DIRECTION('',(0.,0.,1.));
#380=DIRECTION('',(1.,0.,0.));
#381=DIRECTION('',(0.,0.,-1.));
#382=DIRECTION('',(-0.939692620785897,0.,-0.342020143325699));
#383=DIRECTION('',(-1.,0.,0.));
#384=DIRECTION('',(0.,1.,0.));
#385=DIRECTION('',(0.,0.,1.));
#386=DIRECTION('',(0.,0.,1.));
#387=DIRECTION('',(1.,0.,0.));
#388=DIRECTION('',(0.,0.,1.));
#389=DIRECTION('',(0.,-1.,0.));
#390=DIRECTION('',(0.309016994374891,0.951056516295172,0.));
#391=DIRECTION('',(0.,0.,1.));
#392=DIRECTION('',(1.,0.,0.));
#393=DIRECTION('',(0.309016994374891,0.951056516295172,0.));
#394=DIRECTION('',(-1.,0.,0.));
#395=DIRECTION('',(0.,0.,1.));
#396=DIRECTION('',(1.,0.,0.));
#397=DIRECTION('',(0.342020143325699,0.,-0.939692620785897));
#398=DIRECTION('',(0.939692620785897,0.,0.342020143325699));
#399=DIRECTION('',(-0.307080785941572,-0.945097479475404,-0.111768265597815));
#400=DIRECTION('',(-0.342020143325699,0.,0.939692620785897));
#401=DIRECTION('',(0.939692620785897,0.,0.342020143325699));
#402=DIRECTION('',(0.,0.,1.));
#403=DIRECTION('',(0.951056516295172,-0.309016994374891,0.));
#404=DIRECTION('',(0.,0.,-1.));
#405=DIRECTION('',(0.,0.,1.));
#406=DIRECTION('',(0.,1.,0.));
#407=DIRECTION('',(0.,0.,1.));
#408=DIRECTION('',(1.,0.,-1.97469141067643E-17));
#409=DIRECTION('',(0.,0.,1.));
#410=DIRECTION('',(0.,0.,-1.));
#411=DIRECTION('',(1.,0.,0.));
#412=DIRECTION('',(0.,0.,1.));
#413=DIRECTION('',(0.,-1.,0.));
#414=DIRECTION('',(0.,0.,1.));
#415=DIRECTION('',(-1.,0.,0.));
#416=DIRECTION('',(0.,0.,-1.));
#417=DIRECTION('',(-0.309016994374891,-0.951056516295172,0.));
#418=DIRECTION('',(0.951056516295172,-0.309016994374891,0.));
#419=DIRECTION('',(0.309016994374891,0.951056516295172,0.));
#420=DIRECTION('',(0.,1.,0.));
#421=DIRECTION('',(1.,0.,0.));
#422=DIRECTION('',(-1.,0.,0.));
#423=DIRECTION('',(0.,1.,0.));
#424=DIRECTION('',(1.,0.,0.));
#425=DIRECTION('',(0.,1.,0.));
#426=DIRECTION('',(0.,0.,1.));
#427=DIRECTION('',(-0.309016994374891,-0.951056516295172,0.));
#428=DIRECTION('',(0.309016994374891,0.951056516295172,0.));
#429=DIRECTION('',(0.,0.,1.));
#430=DIRECTION('',(-0.309016994374891,0.951056516295172,0.));
#431=DIRECTION('',(0.309016994374891,-0.951056516295172,0.));
#432=DIRECTION('',(0.,0.,1.));
#433=DIRECTION('',(0.,0.,1.));
#434=DIRECTION('',(-1.,0.,0.));
#435=CARTESIAN_POINT('',(0.,0.,0.));
#436=CARTESIAN_POINT('',(0.,0.,0.));
#437=CARTESIAN_POINT('',(0.00015187215287904,4.,-48.4998470072577));
#438=CARTESIAN_POINT('',(0.,0.,0.));
#439=CARTESIAN_POINT('',(-4.39700282164812,4.,-40.9998470072577));
#440=CARTESIAN_POINT('',(-4.39700282164871,3.99999999999999,-40.9998470072577));
#441=CARTESIAN_POINT('',(-4.39700282164812,4.,-48.4998470072577));
#442=CARTESIAN_POINT('',(-4.46413307868208,4.20660568691913,-48.4998470072577));
#443=CARTESIAN_POINT('',(-2.9348641886,-0.5,-48.4998470072577));
#444=CARTESIAN_POINT('',(-2.9348641886,-0.5,-56.3));
#445=CARTESIAN_POINT('',(-2.93486418860055,-0.5,-56.6));
#446=CARTESIAN_POINT('',(-2.80155590975362,-0.910280695176465,-56.6));
#447=CARTESIAN_POINT('',(-5.10000000003831,6.16360284246229,-56.6));
#448=CARTESIAN_POINT('',(-5.1,6.163602842494,-49.76168439698));
#449=CARTESIAN_POINT('',(-5.10000000000074,6.16360284249338,-40.9998470072577));
#450=CARTESIAN_POINT('',(-4.99139111489312,5.82933906481,-40.9998470072577));
#451=CARTESIAN_POINT('',(-5.1,6.163602842494,-48.1));
#452=CARTESIAN_POINT('',(0.,0.,-3.59999999929404));
#453=CARTESIAN_POINT('',(0.,-12.5,-3.59999999929404));
#454=CARTESIAN_POINT('',(0.,0.,1.4));
#455=CARTESIAN_POINT('',(12.5,0.,1.4));
#456=CARTESIAN_POINT('',(0.,0.,-3.6));
#457=CARTESIAN_POINT('',(0.,0.,-56.6));
#458=CARTESIAN_POINT('',(0.,-0.5,-56.6));
#459=CARTESIAN_POINT('',(0.,-8.,-56.6));
#460=CARTESIAN_POINT('',(0.,-0.5,-56.3));
#461=CARTESIAN_POINT('',(0.,-0.5,-51.1));
#462=CARTESIAN_POINT('',(0.,9.6,-51.1));
#463=CARTESIAN_POINT('',(0.,-8.,-51.1));
#464=CARTESIAN_POINT('',(0.,-7.999999999332,-56.29999999933));
#465=CARTESIAN_POINT('',(0.,9.6,-56.6));
#466=CARTESIAN_POINT('',(0.,-0.5,-48.4998470072577));
#467=CARTESIAN_POINT('',(3.03028033844443,-0.5,-48.4998470072577));
#468=CARTESIAN_POINT('',(3.03028033844443,-0.5,-49.21645403767));
#469=CARTESIAN_POINT('',(3.03028033844443,-0.5,-49.9970681553201));
#470=CARTESIAN_POINT('',(1.13196601125,-0.5,-50.6879980657));
#471=CARTESIAN_POINT('',(0.,-0.5,-56.6));
#472=CARTESIAN_POINT('',(0.,-0.5,-3.6));
#473=CARTESIAN_POINT('',(0.,0.,-56.6));
#474=CARTESIAN_POINT('',(0.,0.,-56.6));
#475=CARTESIAN_POINT('',(3.4903944893002,1.20881163201631,-48.4998470072577));
#476=CARTESIAN_POINT('',(4.39730656595388,4.,-48.4998470072577));
#477=CARTESIAN_POINT('',(5.10023938332729,6.16340475977015,-48.4998470072577));
#478=CARTESIAN_POINT('',(0.,0.,-48.4998470072577));
#479=CARTESIAN_POINT('',(5.17500000000002,6.10076839422706,-48.4998470072577));
#480=CARTESIAN_POINT('',(5.175,6.100768394227,-48.4998470072577));
#481=CARTESIAN_POINT('',(-5.1,4.,-48.4998470072577));
#482=CARTESIAN_POINT('',(-5.1,4.,-48.4998470072577));
#483=CARTESIAN_POINT('',(0.,0.,-51.1));
#484=CARTESIAN_POINT('',(5.17500000000002,6.10076839422706,-49.2164540376722));
#485=CARTESIAN_POINT('',(5.63790931096003,7.52545675977411,-49.0479688273181));
#486=CARTESIAN_POINT('',(0.,9.6,-51.1));
#487=CARTESIAN_POINT('',(5.17500000000002,6.10076839422706,-48.6506478898642));
#488=CARTESIAN_POINT('',(5.175,6.100768394227,-49.21645403767));
#489=CARTESIAN_POINT('',(0.,0.,-8.099999998038));
#490=CARTESIAN_POINT('',(0.,8.,-8.099999998038));
#491=CARTESIAN_POINT('',(0.,0.,-5.850000000002));
#492=CARTESIAN_POINT('',(5.10023938332729,6.16340475977014,-59.25));
#493=CARTESIAN_POINT('',(5.10023938332729,6.16340475977014,-40.9998470072577));
#494=CARTESIAN_POINT('',(2.89248021769349,7.45879066539957,-38.4998470072577));
#495=CARTESIAN_POINT('',(3.14978149111758,7.35901057010626,-38.4998470072577));
#496=CARTESIAN_POINT('',(3.40513595627752,7.24384920355476,-38.5467731682954));
#497=CARTESIAN_POINT('',(3.63789814041907,7.12500506104631,-38.635417672623));
#498=CARTESIAN_POINT('',(3.87033881609685,7.00632507491844,-38.7239397345594));
#499=CARTESIAN_POINT('',(4.08672676910791,6.88094057339667,-38.856149431659));
#500=CARTESIAN_POINT('',(4.27324670876733,6.76308824177307,-39.0212884709763));
#501=CARTESIAN_POINT('',(4.46627836350608,6.64112149317953,-39.1921927832959));
#502=CARTESIAN_POINT('',(4.63276461714499,6.52406798601088,-39.4030488266022));
#503=CARTESIAN_POINT('',(4.7622557538017,6.42813504333742,-39.6383662877063));
#504=CARTESIAN_POINT('',(4.89409614349929,6.33046166681563,-39.8779529233295));
#505=CARTESIAN_POINT('',(4.99134443973967,6.25231482092249,-40.1503124429328));
#506=CARTESIAN_POINT('',(5.04599470635168,6.20789315496577,-40.432028251433));
#507=CARTESIAN_POINT('',(5.0818865322651,6.17871901181617,-40.6170464660289));
#508=CARTESIAN_POINT('',(5.10023938332729,6.16340475977014,-40.8091349375605));
#509=CARTESIAN_POINT('',(5.10023938332729,6.16340475977014,-40.9998470072577));
#510=CARTESIAN_POINT('',(2.89248021769349,7.45879066539957,-38.4998470072577));
#511=CARTESIAN_POINT('',(0.,0.,-38.4998470072577));
#512=CARTESIAN_POINT('',(-2.89221046143779,7.45889526986066,-38.4998470072577));
#513=CARTESIAN_POINT('',(-5.10000000000074,6.16360284249338,-40.9998470072577));
#514=CARTESIAN_POINT('',(-5.10000000000074,6.16360284249338,-40.7313084900816));
#515=CARTESIAN_POINT('',(-5.06311230253965,6.1946002309327,-40.4590977722438));
#516=CARTESIAN_POINT('',(-4.99244945963256,6.25103578561302,-40.2062446013969));
#517=CARTESIAN_POINT('',(-4.92190215272199,6.30737906636575,-39.9538048535297));
#518=CARTESIAN_POINT('',(-4.81602106317834,6.39009846263111,-39.7137611601484));
#519=CARTESIAN_POINT('',(-4.68175514029805,6.48699998506959,-39.502905591088));
#520=CARTESIAN_POINT('',(-4.54179977276753,6.58800765623598,-39.2831151332366));
#521=CARTESIAN_POINT('',(-4.36723838212118,6.70682149256829,-39.0890411016257));
#522=CARTESIAN_POINT('',(-4.16848440970842,6.82815771098016,-38.9345345307323));
#523=CARTESIAN_POINT('',(-3.96163049062241,6.9544388212437,-38.7737312555782));
#524=CARTESIAN_POINT('',(-3.72233179202082,7.08686370990079,-38.6514158198926));
#525=CARTESIAN_POINT('',(-3.46842595886342,7.20902360711091,-38.5792913209122));
#526=CARTESIAN_POINT('',(-3.28420787958196,7.29765513380497,-38.5269623274973));
#527=CARTESIAN_POINT('',(-3.08895908722773,7.38260536187892,-38.4998470072577));
#528=CARTESIAN_POINT('',(-2.89221046143779,7.45889526986066,-38.4998470072577));
#529=CARTESIAN_POINT('',(0.,0.,-59.25));
#530=CARTESIAN_POINT('',(-2.5,-5.,1.4));
#531=CARTESIAN_POINT('',(4.39730656595388,4.,-48.4998470072577));
#532=CARTESIAN_POINT('',(4.39730656595399,4.,-40.9998470072577));
#533=CARTESIAN_POINT('',(4.39730656595388,4.,-40.9998470072577));
#534=CARTESIAN_POINT('',(3.00015187215288,-0.3,-27.1998470072577));
#535=CARTESIAN_POINT('',(-1.76834726105366,4.,-40.9998470072577));
#536=CARTESIAN_POINT('',(-1.76834726105356,4.,-38.4998470072577));
#537=CARTESIAN_POINT('',(-1.76834726105312,4.,-38.4998470072577));
#538=CARTESIAN_POINT('',(1.76865100535868,4.,-38.4998470072577));
#539=CARTESIAN_POINT('',(1.76865100535847,4.,-40.9998470072577));
#540=CARTESIAN_POINT('',(6.10015187215288,4.,-48.4998470072577));
#541=CARTESIAN_POINT('',(1.76865100535888,4.,-38.4998470072577));
#542=CARTESIAN_POINT('',(1.74599375895588,3.930268165749,-40.9998470072577));
#543=CARTESIAN_POINT('',(-2.97410217628012,7.710932052462,-38.4998470072577));
#544=CARTESIAN_POINT('',(-3.25408752211212,8.572638341979,-40.9998470072577));
#545=CARTESIAN_POINT('',(0.000151872152879484,2.5,-38.4998470072577));
#546=MECHANICAL_DESIGN_GEOMETRIC_PRESENTATION_REPRESENTATION('',(#306,#307,
#308,#309),#547);
#547=(
GEOMETRIC_REPRESENTATION_CONTEXT(3)
GLOBAL_UNCERTAINTY_ASSIGNED_CONTEXT((#548))
GLOBAL_UNIT_ASSIGNED_CONTEXT((#554,#550,#549))
REPRESENTATION_CONTEXT('BAS25MH1660','TOP_LEVEL_ASSEMBLY_PART')
);
#548=UNCERTAINTY_MEASURE_WITH_UNIT(LENGTH_MEASURE(0.0508),#554,
'DISTANCE_ACCURACY_VALUE','Maximum Tolerance applied to model');
#549=(
NAMED_UNIT(*)
SI_UNIT($,.STERADIAN.)
SOLID_ANGLE_UNIT()
);
#550=(
CONVERSION_BASED_UNIT('DEGREE',#552)
NAMED_UNIT(#551)
PLANE_ANGLE_UNIT()
);
#551=DIMENSIONAL_EXPONENTS(0.,0.,0.,0.,0.,0.,0.);
#552=PLANE_ANGLE_MEASURE_WITH_UNIT(PLANE_ANGLE_MEASURE(0.0174532925),#553);
#553=(
NAMED_UNIT(*)
PLANE_ANGLE_UNIT()
SI_UNIT($,.RADIAN.)
);
#554=(
LENGTH_UNIT()
NAMED_UNIT(*)
SI_UNIT(.MILLI.,.METRE.)
);
ENDSEC;
END-ISO-10303-21;
