ISO-10303-21;
HEADER;
/* Generated by software containing ST-Developer
 * from STEP Tools, Inc. (www.steptools.com) 
 */
/* OPTION: using custom schema-name function */

FILE_DESCRIPTION(
/* description */ (''),
/* implementation_level */ '2;1');

FILE_NAME(
/* name */ 'BAS25CW1660.stp',
/* time_stamp */ '2017-10-23T16:42:20+05:00',
/* author */ (''),
/* organization */ (''),
/* preprocessor_version */ 'ST-DEVELOPER v16',
/* originating_system */ 'SIEMENS PLM Software NX 11.0',
/* authorisation */ '');

FILE_SCHEMA (('AUTOMOTIVE_DESIGN { 1 0 10303 214 3 1 1 1 }'));
ENDSEC;

DATA;
#10=CONSTRUCTIVE_GEOMETRY_REPRESENTATION_RELATIONSHIP(
'supplemental geometry','',#32,#11);
#11=CONSTRUCTIVE_GEOMETRY_REPRESENTATION('supplemental geometry',(#112,
#113),#173);
#12=PROPERTY_DEFINITION_REPRESENTATION(#16,#14);
#13=PROPERTY_DEFINITION_REPRESENTATION(#17,#15);
#14=REPRESENTATION('',(#18),#173);
#15=REPRESENTATION('',(#19),#173);
#16=PROPERTY_DEFINITION('pmi validation property','',#23);
#17=PROPERTY_DEFINITION('pmi validation property','',#23);
#18=VALUE_REPRESENTATION_ITEM('number of annotations',COUNT_MEASURE(0.));
#19=VALUE_REPRESENTATION_ITEM('number of views',COUNT_MEASURE(0.));
#20=SHAPE_REPRESENTATION_RELATIONSHIP('None',
'relationship between BAS25CW1660-None and BAS25CW1660-None',#32,#21);
#21=ADVANCED_BREP_SHAPE_REPRESENTATION('BAS25CW1660-None',(#38),#173);
#22=SHAPE_DEFINITION_REPRESENTATION(#23,#32);
#23=PRODUCT_DEFINITION_SHAPE('','',#24);
#24=PRODUCT_DEFINITION(' ','',#26,#25);
#25=PRODUCT_DEFINITION_CONTEXT('part definition',#31,'design');
#26=PRODUCT_DEFINITION_FORMATION_WITH_SPECIFIED_SOURCE(' ',' ',#28,
 .NOT_KNOWN.);
#27=PRODUCT_RELATED_PRODUCT_CATEGORY('part','',(#28));
#28=PRODUCT('BAS25CW1660','BAS25CW1660',' ',(#29));
#29=PRODUCT_CONTEXT(' ',#31,'mechanical');
#30=APPLICATION_PROTOCOL_DEFINITION('international standard',
'automotive_design',2010,#31);
#31=APPLICATION_CONTEXT(
'core data for automotive mechanical design processes');
#32=SHAPE_REPRESENTATION('BAS25CW1660-None',(#111),#173);
#33=SURFACE_STYLE_USAGE(.BOTH.,#34);
#34=SURFACE_SIDE_STYLE('',(#35));
#35=SURFACE_STYLE_FILL_AREA(#36);
#36=FILL_AREA_STYLE('',(#37));
#37=FILL_AREA_STYLE_COLOUR('',#108);
#38=MANIFOLD_SOLID_BREP('NOCUT',#39);
#39=CLOSED_SHELL('',(#46,#47,#48,#49,#50,#51));
#40=PLANE('',#123);
#41=PLANE('',#124);
#42=FACE_OUTER_BOUND('',#70,.T.);
#43=FACE_OUTER_BOUND('',#71,.T.);
#44=CONICAL_SURFACE('',#119,7.499999998117,44.99999998543);
#45=CONICAL_SURFACE('',#122,10.24999999947,44.99999999258);
#46=ADVANCED_FACE('',(#54,#55),#52,.T.);
#47=ADVANCED_FACE('',(#56,#57),#44,.T.);
#48=ADVANCED_FACE('',(#58,#59),#53,.T.);
#49=ADVANCED_FACE('',(#60,#61),#45,.T.);
#50=ADVANCED_FACE('',(#42),#40,.F.);
#51=ADVANCED_FACE('',(#43),#41,.F.);
#52=CYLINDRICAL_SURFACE('',#116,12.5);
#53=CYLINDRICAL_SURFACE('',#121,8.);
#54=FACE_BOUND('',#62,.T.);
#55=FACE_BOUND('',#63,.T.);
#56=FACE_BOUND('',#64,.T.);
#57=FACE_BOUND('',#65,.T.);
#58=FACE_BOUND('',#66,.T.);
#59=FACE_BOUND('',#67,.T.);
#60=FACE_BOUND('',#68,.T.);
#61=FACE_BOUND('',#69,.T.);
#62=EDGE_LOOP('',(#72));
#63=EDGE_LOOP('',(#73));
#64=EDGE_LOOP('',(#74));
#65=EDGE_LOOP('',(#75));
#66=EDGE_LOOP('',(#76));
#67=EDGE_LOOP('',(#77));
#68=EDGE_LOOP('',(#78));
#69=EDGE_LOOP('',(#79));
#70=EDGE_LOOP('',(#80));
#71=EDGE_LOOP('',(#81));
#72=ORIENTED_EDGE('',*,*,#87,.F.);
#73=ORIENTED_EDGE('',*,*,#88,.T.);
#74=ORIENTED_EDGE('',*,*,#89,.F.);
#75=ORIENTED_EDGE('',*,*,#90,.T.);
#76=ORIENTED_EDGE('',*,*,#89,.T.);
#77=ORIENTED_EDGE('',*,*,#91,.F.);
#78=ORIENTED_EDGE('',*,*,#91,.T.);
#79=ORIENTED_EDGE('',*,*,#88,.F.);
#80=ORIENTED_EDGE('',*,*,#90,.F.);
#81=ORIENTED_EDGE('',*,*,#87,.T.);
#82=VERTEX_POINT('',#157);
#83=VERTEX_POINT('',#159);
#84=VERTEX_POINT('',#162);
#85=VERTEX_POINT('',#164);
#86=VERTEX_POINT('',#167);
#87=EDGE_CURVE('',#82,#82,#92,.T.);
#88=EDGE_CURVE('',#83,#83,#93,.T.);
#89=EDGE_CURVE('',#84,#84,#94,.T.);
#90=EDGE_CURVE('',#85,#85,#95,.T.);
#91=EDGE_CURVE('',#86,#86,#96,.T.);
#92=CIRCLE('',#114,12.5);
#93=CIRCLE('',#115,12.5);
#94=CIRCLE('',#117,8.);
#95=CIRCLE('',#118,6.999999998216);
#96=CIRCLE('',#120,8.);
#97=PRESENTATION_LAYER_ASSIGNMENT('1','Layer 1',(#112,#113));
#98=PRESENTATION_LAYER_ASSIGNMENT('2','Layer 2',(#38));
#99=STYLED_ITEM('',(#102),#112);
#100=STYLED_ITEM('',(#103),#113);
#101=STYLED_ITEM('',(#104),#38);
#102=PRESENTATION_STYLE_ASSIGNMENT((#105));
#103=PRESENTATION_STYLE_ASSIGNMENT((#106));
#104=PRESENTATION_STYLE_ASSIGNMENT((#33));
#105=CURVE_STYLE('',#109,POSITIVE_LENGTH_MEASURE(0.18),#107);
#106=CURVE_STYLE('',#110,POSITIVE_LENGTH_MEASURE(0.18),#107);
#107=COLOUR_RGB('Strong Stone',0.576470588235294,0.54508278019379,0.392156862745098);
#108=COLOUR_RGB('Medium Gray',0.490196078431373,0.490196078431373,0.490196078431373);
#109=DRAUGHTING_PRE_DEFINED_CURVE_FONT('continuous');
#110=DRAUGHTING_PRE_DEFINED_CURVE_FONT('continuous');
#111=AXIS2_PLACEMENT_3D('',#153,#125,#126);
#112=AXIS2_PLACEMENT_3D('MCS',#154,#127,#128);
#113=AXIS2_PLACEMENT_3D('PCS',#155,#129,#130);
#114=AXIS2_PLACEMENT_3D('',#156,#131,#132);
#115=AXIS2_PLACEMENT_3D('',#158,#133,#134);
#116=AXIS2_PLACEMENT_3D('',#160,#135,#136);
#117=AXIS2_PLACEMENT_3D('',#161,#137,#138);
#118=AXIS2_PLACEMENT_3D('',#163,#139,#140);
#119=AXIS2_PLACEMENT_3D('',#165,#141,#142);
#120=AXIS2_PLACEMENT_3D('',#166,#143,#144);
#121=AXIS2_PLACEMENT_3D('',#168,#145,#146);
#122=AXIS2_PLACEMENT_3D('',#169,#147,#148);
#123=AXIS2_PLACEMENT_3D('',#170,#149,#150);
#124=AXIS2_PLACEMENT_3D('',#171,#151,#152);
#125=DIRECTION('',(0.,0.,1.));
#126=DIRECTION('',(1.,0.,0.));
#127=DIRECTION('',(0.,0.,1.));
#128=DIRECTION('',(1.,0.,0.));
#129=DIRECTION('',(0.,0.,1.));
#130=DIRECTION('',(1.,0.,0.));
#131=DIRECTION('',(0.,0.,1.));
#132=DIRECTION('',(-1.,0.,0.));
#133=DIRECTION('',(0.,0.,1.));
#134=DIRECTION('',(0.,-1.,0.));
#135=DIRECTION('',(0.,0.,-1.));
#136=DIRECTION('',(0.,-1.,0.));
#137=DIRECTION('',(0.,0.,1.));
#138=DIRECTION('',(0.,1.,0.));
#139=DIRECTION('',(0.,0.,1.));
#140=DIRECTION('',(0.,1.,0.));
#141=DIRECTION('',(0.,0.,1.));
#142=DIRECTION('',(1.,0.,-2.06617188310361E-17));
#143=DIRECTION('',(0.,0.,1.));
#144=DIRECTION('',(0.,-1.,0.));
#145=DIRECTION('',(0.,0.,1.));
#146=DIRECTION('',(0.,-1.,0.));
#147=DIRECTION('',(0.,0.,1.));
#148=DIRECTION('',(1.,0.,-5.4947934912664E-17));
#149=DIRECTION('',(0.,0.,1.));
#150=DIRECTION('',(0.,1.,0.));
#151=DIRECTION('',(0.,0.,-1.));
#152=DIRECTION('',(1.,0.,0.));
#153=CARTESIAN_POINT('',(0.,0.,0.));
#154=CARTESIAN_POINT('',(0.,0.,0.));
#155=CARTESIAN_POINT('',(0.,0.,0.));
#156=CARTESIAN_POINT('',(0.,0.,1.4));
#157=CARTESIAN_POINT('',(-12.5,0.,1.4));
#158=CARTESIAN_POINT('',(0.,0.,-3.59999999676334));
#159=CARTESIAN_POINT('',(0.,-12.5,-3.59999999676334));
#160=CARTESIAN_POINT('',(0.,0.,-3.6));
#161=CARTESIAN_POINT('',(0.,0.,-55.59999999999));
#162=CARTESIAN_POINT('',(0.,8.,-55.59999999999));
#163=CARTESIAN_POINT('',(0.,0.,-56.59999999822));
#164=CARTESIAN_POINT('',(0.,6.999999998216,-56.59999999822));
#165=CARTESIAN_POINT('',(-1.7763568394E-14,0.,-56.09999999807));
#166=CARTESIAN_POINT('',(0.,0.,-8.099999999987));
#167=CARTESIAN_POINT('',(0.,-8.,-8.099999999987));
#168=CARTESIAN_POINT('',(0.,0.,-66.6));
#169=CARTESIAN_POINT('',(0.,0.,-5.849999997874));
#170=CARTESIAN_POINT('',(-15.00000000019,-8.,-56.6));
#171=CARTESIAN_POINT('',(0.,0.,1.4));
#172=MECHANICAL_DESIGN_GEOMETRIC_PRESENTATION_REPRESENTATION('',(#99,#100,
#101),#173);
#173=(
GEOMETRIC_REPRESENTATION_CONTEXT(3)
GLOBAL_UNCERTAINTY_ASSIGNED_CONTEXT((#174))
GLOBAL_UNIT_ASSIGNED_CONTEXT((#180,#176,#175))
REPRESENTATION_CONTEXT('BAS25CW1660','TOP_LEVEL_ASSEMBLY_PART')
);
#174=UNCERTAINTY_MEASURE_WITH_UNIT(LENGTH_MEASURE(2.E-5),#180,
'DISTANCE_ACCURACY_VALUE','Maximum Tolerance applied to model');
#175=(
NAMED_UNIT(*)
SI_UNIT($,.STERADIAN.)
SOLID_ANGLE_UNIT()
);
#176=(
CONVERSION_BASED_UNIT('DEGREE',#178)
NAMED_UNIT(#177)
PLANE_ANGLE_UNIT()
);
#177=DIMENSIONAL_EXPONENTS(0.,0.,0.,0.,0.,0.,0.);
#178=PLANE_ANGLE_MEASURE_WITH_UNIT(PLANE_ANGLE_MEASURE(0.0174532925),#179);
#179=(
NAMED_UNIT(*)
PLANE_ANGLE_UNIT()
SI_UNIT($,.RADIAN.)
);
#180=(
LENGTH_UNIT()
NAMED_UNIT(*)
SI_UNIT(.MILLI.,.METRE.)
);
ENDSEC;
END-ISO-10303-21;
