ISO-10303-21;
HEADER;
/* Generated by software containing ST-Developer
 * from STEP Tools, Inc. (www.steptools.com) 
 */
/* OPTION: using custom schema-name function */

FILE_DESCRIPTION(
/* description */ (''),
/* implementation_level */ '2;1');

FILE_NAME(
/* name */ 'BM050W78050.stp',
/* time_stamp */ '2017-10-27T11:34:26+05:00',
/* author */ (''),
/* organization */ (''),
/* preprocessor_version */ 'ST-DEVELOPER v16',
/* originating_system */ 'SIEMENS PLM Software NX 11.0',
/* authorisation */ '');

FILE_SCHEMA (('AUTOMOTIVE_DESIGN { 1 0 10303 214 3 1 1 1 }'));
ENDSEC;

DATA;
#10=CONSTRUCTIVE_GEOMETRY_REPRESENTATION_RELATIONSHIP(
'supplemental geometry','',#32,#11);
#11=CONSTRUCTIVE_GEOMETRY_REPRESENTATION('supplemental geometry',(#351,
#352,#353),#572);
#12=PROPERTY_DEFINITION_REPRESENTATION(#16,#14);
#13=PROPERTY_DEFINITION_REPRESENTATION(#17,#15);
#14=REPRESENTATION('',(#18),#572);
#15=REPRESENTATION('',(#19),#572);
#16=PROPERTY_DEFINITION('pmi validation property','',#23);
#17=PROPERTY_DEFINITION('pmi validation property','',#23);
#18=VALUE_REPRESENTATION_ITEM('number of annotations',COUNT_MEASURE(0.));
#19=VALUE_REPRESENTATION_ITEM('number of views',COUNT_MEASURE(0.));
#20=SHAPE_REPRESENTATION_RELATIONSHIP('None',
'relationship between BM050W78050-None and BM050W78050-None',#32,#21);
#21=ADVANCED_BREP_SHAPE_REPRESENTATION('BM050W78050-None',(#69,#70,#71),
#572);
#22=SHAPE_DEFINITION_REPRESENTATION(#23,#32);
#23=PRODUCT_DEFINITION_SHAPE('','',#24);
#24=PRODUCT_DEFINITION(' ','',#26,#25);
#25=PRODUCT_DEFINITION_CONTEXT('part definition',#31,'design');
#26=PRODUCT_DEFINITION_FORMATION_WITH_SPECIFIED_SOURCE(' ',' ',#28,
 .NOT_KNOWN.);
#27=PRODUCT_RELATED_PRODUCT_CATEGORY('part','',(#28));
#28=PRODUCT('BM050W78050','BM050W78050',' ',(#29));
#29=PRODUCT_CONTEXT(' ',#31,'mechanical');
#30=APPLICATION_PROTOCOL_DEFINITION('international standard',
'automotive_design',2010,#31);
#31=APPLICATION_CONTEXT(
'core data for automotive mechanical design processes');
#32=SHAPE_REPRESENTATION('BM050W78050-None',(#350),#572);
#33=B_SPLINE_CURVE_WITH_KNOTS('',3,(#546,#547,#548,#549,#550,#551,#552,
#553,#554,#555),.UNSPECIFIED.,.F.,.F.,(4,2,2,2,4),(0.,0.25,0.5,0.75,1.),
 .UNSPECIFIED.);
#34=CONICAL_SURFACE('',#368,0.7875,60.);
#35=CONICAL_SURFACE('',#372,2.4625,30.);
#36=CONICAL_SURFACE('',#381,27.,75.);
#37=VERTEX_LOOP('',#241);
#38=FACE_BOUND('',#134,.T.);
#39=FACE_BOUND('',#135,.T.);
#40=FACE_BOUND('',#37,.T.);
#41=FACE_BOUND('',#137,.T.);
#42=FACE_BOUND('',#138,.T.);
#43=FACE_BOUND('',#139,.T.);
#44=FACE_BOUND('',#140,.T.);
#45=FACE_BOUND('',#141,.T.);
#46=FACE_BOUND('',#142,.T.);
#47=FACE_BOUND('',#143,.T.);
#48=FACE_BOUND('',#144,.T.);
#49=FACE_BOUND('',#145,.T.);
#50=FACE_BOUND('',#147,.T.);
#51=FACE_BOUND('',#148,.T.);
#52=FACE_BOUND('',#149,.T.);
#53=FACE_BOUND('',#150,.T.);
#54=SURFACE_STYLE_USAGE(.BOTH.,#57);
#55=SURFACE_STYLE_USAGE(.BOTH.,#58);
#56=SURFACE_STYLE_USAGE(.BOTH.,#59);
#57=SURFACE_SIDE_STYLE('',(#60));
#58=SURFACE_SIDE_STYLE('',(#61));
#59=SURFACE_SIDE_STYLE('',(#62));
#60=SURFACE_STYLE_FILL_AREA(#63);
#61=SURFACE_STYLE_FILL_AREA(#64);
#62=SURFACE_STYLE_FILL_AREA(#65);
#63=FILL_AREA_STYLE('',(#66));
#64=FILL_AREA_STYLE('',(#67));
#65=FILL_AREA_STYLE('',(#68));
#66=FILL_AREA_STYLE_COLOUR('',#345);
#67=FILL_AREA_STYLE_COLOUR('',#346);
#68=FILL_AREA_STYLE_COLOUR('',#346);
#69=MANIFOLD_SOLID_BREP('NOCUT',#72);
#70=MANIFOLD_SOLID_BREP('NOCUT',#73);
#71=MANIFOLD_SOLID_BREP('NOCUT',#74);
#72=CLOSED_SHELL('',(#81,#82,#83,#84,#85,#86));
#73=CLOSED_SHELL('',(#87,#88,#89));
#74=CLOSED_SHELL('',(#90,#91,#92,#93,#94,#95,#96,#97,#98,#99,#100,#101));
#75=CYLINDRICAL_SURFACE('',#360,6.);
#76=CYLINDRICAL_SURFACE('',#365,14.);
#77=CYLINDRICAL_SURFACE('',#370,1.575);
#78=CYLINDRICAL_SURFACE('',#376,29.);
#79=CYLINDRICAL_SURFACE('',#380,25.);
#80=CYLINDRICAL_SURFACE('',#384,6.01);
#81=ADVANCED_FACE('',(#114),#102,.F.);
#82=ADVANCED_FACE('',(#115),#103,.T.);
#83=ADVANCED_FACE('',(#116),#104,.T.);
#84=ADVANCED_FACE('',(#117),#105,.T.);
#85=ADVANCED_FACE('',(#118),#75,.T.);
#86=ADVANCED_FACE('',(#119),#106,.T.);
#87=ADVANCED_FACE('',(#120),#107,.F.);
#88=ADVANCED_FACE('',(#38,#39),#76,.T.);
#89=ADVANCED_FACE('',(#121),#108,.F.);
#90=ADVANCED_FACE('',(#40,#41),#34,.F.);
#91=ADVANCED_FACE('',(#42,#43),#77,.F.);
#92=ADVANCED_FACE('',(#44,#45),#35,.F.);
#93=ADVANCED_FACE('',(#46,#47),#109,.F.);
#94=ADVANCED_FACE('',(#48,#49),#78,.T.);
#95=ADVANCED_FACE('',(#122),#110,.F.);
#96=ADVANCED_FACE('',(#50,#51),#79,.T.);
#97=ADVANCED_FACE('',(#52,#53),#36,.T.);
#98=ADVANCED_FACE('',(#123),#111,.F.);
#99=ADVANCED_FACE('',(#124),#80,.F.);
#100=ADVANCED_FACE('',(#125),#112,.T.);
#101=ADVANCED_FACE('',(#126),#113,.F.);
#102=PLANE('',#355);
#103=PLANE('',#356);
#104=PLANE('',#357);
#105=PLANE('',#358);
#106=PLANE('',#361);
#107=PLANE('',#363);
#108=PLANE('',#366);
#109=PLANE('',#374);
#110=PLANE('',#378);
#111=PLANE('',#382);
#112=PLANE('',#385);
#113=PLANE('',#386);
#114=FACE_OUTER_BOUND('',#127,.T.);
#115=FACE_OUTER_BOUND('',#128,.T.);
#116=FACE_OUTER_BOUND('',#129,.T.);
#117=FACE_OUTER_BOUND('',#130,.T.);
#118=FACE_OUTER_BOUND('',#131,.T.);
#119=FACE_OUTER_BOUND('',#132,.T.);
#120=FACE_OUTER_BOUND('',#133,.T.);
#121=FACE_OUTER_BOUND('',#136,.T.);
#122=FACE_OUTER_BOUND('',#146,.T.);
#123=FACE_OUTER_BOUND('',#151,.T.);
#124=FACE_OUTER_BOUND('',#152,.T.);
#125=FACE_OUTER_BOUND('',#153,.T.);
#126=FACE_OUTER_BOUND('',#154,.T.);
#127=EDGE_LOOP('',(#167,#168,#169,#170));
#128=EDGE_LOOP('',(#171,#172,#173,#174));
#129=EDGE_LOOP('',(#175,#176,#177,#178));
#130=EDGE_LOOP('',(#179,#180,#181,#182));
#131=EDGE_LOOP('',(#183,#184,#185,#186));
#132=EDGE_LOOP('',(#187,#188,#189,#190));
#133=EDGE_LOOP('',(#191));
#134=EDGE_LOOP('',(#192));
#135=EDGE_LOOP('',(#193));
#136=EDGE_LOOP('',(#194));
#137=EDGE_LOOP('',(#195));
#138=EDGE_LOOP('',(#196));
#139=EDGE_LOOP('',(#197));
#140=EDGE_LOOP('',(#198));
#141=EDGE_LOOP('',(#199));
#142=EDGE_LOOP('',(#200));
#143=EDGE_LOOP('',(#201));
#144=EDGE_LOOP('',(#202));
#145=EDGE_LOOP('',(#203));
#146=EDGE_LOOP('',(#204,#205,#206,#207));
#147=EDGE_LOOP('',(#208));
#148=EDGE_LOOP('',(#209,#210,#211,#212));
#149=EDGE_LOOP('',(#213));
#150=EDGE_LOOP('',(#214));
#151=EDGE_LOOP('',(#215,#216,#217,#218));
#152=EDGE_LOOP('',(#219,#220,#221,#222));
#153=EDGE_LOOP('',(#223,#224,#225,#226));
#154=EDGE_LOOP('',(#227,#228,#229,#230));
#155=CIRCLE('',#354,6.);
#156=CIRCLE('',#359,6.);
#157=CIRCLE('',#362,14.);
#158=CIRCLE('',#364,14.);
#159=CIRCLE('',#367,1.575);
#160=CIRCLE('',#369,1.575);
#161=CIRCLE('',#371,3.35);
#162=CIRCLE('',#373,29.);
#163=CIRCLE('',#375,29.);
#164=CIRCLE('',#377,25.);
#165=CIRCLE('',#379,25.);
#166=CIRCLE('',#383,6.01);
#167=ORIENTED_EDGE('',*,*,#256,.F.);
#168=ORIENTED_EDGE('',*,*,#257,.F.);
#169=ORIENTED_EDGE('',*,*,#258,.F.);
#170=ORIENTED_EDGE('',*,*,#259,.F.);
#171=ORIENTED_EDGE('',*,*,#260,.T.);
#172=ORIENTED_EDGE('',*,*,#261,.F.);
#173=ORIENTED_EDGE('',*,*,#262,.F.);
#174=ORIENTED_EDGE('',*,*,#256,.T.);
#175=ORIENTED_EDGE('',*,*,#257,.T.);
#176=ORIENTED_EDGE('',*,*,#262,.T.);
#177=ORIENTED_EDGE('',*,*,#263,.F.);
#178=ORIENTED_EDGE('',*,*,#264,.F.);
#179=ORIENTED_EDGE('',*,*,#258,.T.);
#180=ORIENTED_EDGE('',*,*,#264,.T.);
#181=ORIENTED_EDGE('',*,*,#265,.F.);
#182=ORIENTED_EDGE('',*,*,#266,.F.);
#183=ORIENTED_EDGE('',*,*,#266,.T.);
#184=ORIENTED_EDGE('',*,*,#267,.F.);
#185=ORIENTED_EDGE('',*,*,#260,.F.);
#186=ORIENTED_EDGE('',*,*,#259,.T.);
#187=ORIENTED_EDGE('',*,*,#267,.T.);
#188=ORIENTED_EDGE('',*,*,#265,.T.);
#189=ORIENTED_EDGE('',*,*,#263,.T.);
#190=ORIENTED_EDGE('',*,*,#261,.T.);
#191=ORIENTED_EDGE('',*,*,#268,.T.);
#192=ORIENTED_EDGE('',*,*,#269,.T.);
#193=ORIENTED_EDGE('',*,*,#268,.F.);
#194=ORIENTED_EDGE('',*,*,#269,.F.);
#195=ORIENTED_EDGE('',*,*,#270,.F.);
#196=ORIENTED_EDGE('',*,*,#271,.F.);
#197=ORIENTED_EDGE('',*,*,#270,.T.);
#198=ORIENTED_EDGE('',*,*,#271,.T.);
#199=ORIENTED_EDGE('',*,*,#272,.T.);
#200=ORIENTED_EDGE('',*,*,#273,.F.);
#201=ORIENTED_EDGE('',*,*,#272,.F.);
#202=ORIENTED_EDGE('',*,*,#273,.T.);
#203=ORIENTED_EDGE('',*,*,#274,.T.);
#204=ORIENTED_EDGE('',*,*,#275,.T.);
#205=ORIENTED_EDGE('',*,*,#276,.T.);
#206=ORIENTED_EDGE('',*,*,#277,.F.);
#207=ORIENTED_EDGE('',*,*,#278,.F.);
#208=ORIENTED_EDGE('',*,*,#279,.T.);
#209=ORIENTED_EDGE('',*,*,#277,.T.);
#210=ORIENTED_EDGE('',*,*,#280,.T.);
#211=ORIENTED_EDGE('',*,*,#281,.T.);
#212=ORIENTED_EDGE('',*,*,#282,.T.);
#213=ORIENTED_EDGE('',*,*,#274,.F.);
#214=ORIENTED_EDGE('',*,*,#279,.F.);
#215=ORIENTED_EDGE('',*,*,#282,.F.);
#216=ORIENTED_EDGE('',*,*,#283,.T.);
#217=ORIENTED_EDGE('',*,*,#284,.T.);
#218=ORIENTED_EDGE('',*,*,#278,.T.);
#219=ORIENTED_EDGE('',*,*,#281,.F.);
#220=ORIENTED_EDGE('',*,*,#285,.T.);
#221=ORIENTED_EDGE('',*,*,#286,.T.);
#222=ORIENTED_EDGE('',*,*,#283,.F.);
#223=ORIENTED_EDGE('',*,*,#286,.F.);
#224=ORIENTED_EDGE('',*,*,#287,.F.);
#225=ORIENTED_EDGE('',*,*,#275,.F.);
#226=ORIENTED_EDGE('',*,*,#284,.F.);
#227=ORIENTED_EDGE('',*,*,#285,.F.);
#228=ORIENTED_EDGE('',*,*,#280,.F.);
#229=ORIENTED_EDGE('',*,*,#276,.F.);
#230=ORIENTED_EDGE('',*,*,#287,.T.);
#231=VERTEX_POINT('',#485);
#232=VERTEX_POINT('',#486);
#233=VERTEX_POINT('',#488);
#234=VERTEX_POINT('',#490);
#235=VERTEX_POINT('',#494);
#236=VERTEX_POINT('',#496);
#237=VERTEX_POINT('',#500);
#238=VERTEX_POINT('',#504);
#239=VERTEX_POINT('',#511);
#240=VERTEX_POINT('',#514);
#241=VERTEX_POINT('',#517);
#242=VERTEX_POINT('',#519);
#243=VERTEX_POINT('',#522);
#244=VERTEX_POINT('',#525);
#245=VERTEX_POINT('',#528);
#246=VERTEX_POINT('',#531);
#247=VERTEX_POINT('',#534);
#248=VERTEX_POINT('',#535);
#249=VERTEX_POINT('',#537);
#250=VERTEX_POINT('',#539);
#251=VERTEX_POINT('',#543);
#252=VERTEX_POINT('',#545);
#253=VERTEX_POINT('',#556);
#254=VERTEX_POINT('',#561);
#255=VERTEX_POINT('',#565);
#256=EDGE_CURVE('',#231,#232,#288,.T.);
#257=EDGE_CURVE('',#233,#231,#289,.T.);
#258=EDGE_CURVE('',#234,#233,#290,.T.);
#259=EDGE_CURVE('',#232,#234,#155,.T.);
#260=EDGE_CURVE('',#232,#235,#291,.T.);
#261=EDGE_CURVE('',#236,#235,#292,.T.);
#262=EDGE_CURVE('',#231,#236,#293,.T.);
#263=EDGE_CURVE('',#237,#236,#294,.T.);
#264=EDGE_CURVE('',#233,#237,#295,.T.);
#265=EDGE_CURVE('',#238,#237,#296,.T.);
#266=EDGE_CURVE('',#234,#238,#297,.T.);
#267=EDGE_CURVE('',#235,#238,#156,.T.);
#268=EDGE_CURVE('',#239,#239,#157,.T.);
#269=EDGE_CURVE('',#240,#240,#158,.T.);
#270=EDGE_CURVE('',#242,#242,#159,.T.);
#271=EDGE_CURVE('',#243,#243,#160,.T.);
#272=EDGE_CURVE('',#244,#244,#161,.T.);
#273=EDGE_CURVE('',#245,#245,#162,.T.);
#274=EDGE_CURVE('',#246,#246,#163,.T.);
#275=EDGE_CURVE('',#247,#248,#298,.T.);
#276=EDGE_CURVE('',#248,#249,#299,.T.);
#277=EDGE_CURVE('',#250,#249,#164,.T.);
#278=EDGE_CURVE('',#247,#250,#300,.T.);
#279=EDGE_CURVE('',#251,#251,#165,.T.);
#280=EDGE_CURVE('',#249,#252,#301,.T.);
#281=EDGE_CURVE('',#252,#253,#33,.T.);
#282=EDGE_CURVE('',#253,#250,#302,.T.);
#283=EDGE_CURVE('',#253,#254,#303,.T.);
#284=EDGE_CURVE('',#254,#247,#304,.T.);
#285=EDGE_CURVE('',#252,#255,#305,.T.);
#286=EDGE_CURVE('',#255,#254,#166,.T.);
#287=EDGE_CURVE('',#248,#255,#306,.T.);
#288=LINE('',#484,#307);
#289=LINE('',#487,#308);
#290=LINE('',#489,#309);
#291=LINE('',#493,#310);
#292=LINE('',#495,#311);
#293=LINE('',#497,#312);
#294=LINE('',#499,#313);
#295=LINE('',#501,#314);
#296=LINE('',#503,#315);
#297=LINE('',#505,#316);
#298=LINE('',#533,#317);
#299=LINE('',#536,#318);
#300=LINE('',#540,#319);
#301=LINE('',#544,#320);
#302=LINE('',#557,#321);
#303=LINE('',#560,#322);
#304=LINE('',#562,#323);
#305=LINE('',#564,#324);
#306=LINE('',#568,#325);
#307=VECTOR('',#395,1.);
#308=VECTOR('',#396,1.);
#309=VECTOR('',#397,1.);
#310=VECTOR('',#402,1.);
#311=VECTOR('',#403,1.);
#312=VECTOR('',#404,1.);
#313=VECTOR('',#407,1.);
#314=VECTOR('',#408,1.);
#315=VECTOR('',#411,1.);
#316=VECTOR('',#412,1.);
#317=VECTOR('',#451,1.);
#318=VECTOR('',#452,1.);
#319=VECTOR('',#455,1.);
#320=VECTOR('',#460,1.);
#321=VECTOR('',#461,1.);
#322=VECTOR('',#466,1.);
#323=VECTOR('',#467,1.);
#324=VECTOR('',#470,1.);
#325=VECTOR('',#475,1.);
#326=PRESENTATION_LAYER_ASSIGNMENT('1','Layer 1',(#351,#352,#353,#70));
#327=PRESENTATION_LAYER_ASSIGNMENT('4','Layer 4',(#69));
#328=PRESENTATION_LAYER_ASSIGNMENT('2','Layer 2',(#71));
#329=STYLED_ITEM('',(#335),#351);
#330=STYLED_ITEM('',(#336),#352);
#331=STYLED_ITEM('',(#337),#353);
#332=STYLED_ITEM('',(#338),#69);
#333=STYLED_ITEM('',(#339),#70);
#334=STYLED_ITEM('',(#340),#71);
#335=PRESENTATION_STYLE_ASSIGNMENT((#341));
#336=PRESENTATION_STYLE_ASSIGNMENT((#342));
#337=PRESENTATION_STYLE_ASSIGNMENT((#343));
#338=PRESENTATION_STYLE_ASSIGNMENT((#54));
#339=PRESENTATION_STYLE_ASSIGNMENT((#55));
#340=PRESENTATION_STYLE_ASSIGNMENT((#56));
#341=CURVE_STYLE('',#347,POSITIVE_LENGTH_MEASURE(0.18),#344);
#342=CURVE_STYLE('',#348,POSITIVE_LENGTH_MEASURE(0.18),#344);
#343=CURVE_STYLE('',#349,POSITIVE_LENGTH_MEASURE(0.18),#344);
#344=COLOUR_RGB('Strong Stone',0.576470588235294,0.54508278019379,0.392156862745098);
#345=COLOUR_RGB('Iron Gray',0.298023956664378,0.298023956664378,0.298023956664378);
#346=COLOUR_RGB('Medium Gray',0.490196078431373,0.490196078431373,0.490196078431373);
#347=DRAUGHTING_PRE_DEFINED_CURVE_FONT('continuous');
#348=DRAUGHTING_PRE_DEFINED_CURVE_FONT('continuous');
#349=DRAUGHTING_PRE_DEFINED_CURVE_FONT('continuous');
#350=AXIS2_PLACEMENT_3D('',#480,#387,#388);
#351=AXIS2_PLACEMENT_3D('MCS',#481,#389,#390);
#352=AXIS2_PLACEMENT_3D('PCS',#482,#391,#392);
#353=AXIS2_PLACEMENT_3D('CSW',#483,#393,#394);
#354=AXIS2_PLACEMENT_3D('',#491,#398,#399);
#355=AXIS2_PLACEMENT_3D('',#492,#400,#401);
#356=AXIS2_PLACEMENT_3D('',#498,#405,#406);
#357=AXIS2_PLACEMENT_3D('',#502,#409,#410);
#358=AXIS2_PLACEMENT_3D('',#506,#413,#414);
#359=AXIS2_PLACEMENT_3D('',#507,#415,#416);
#360=AXIS2_PLACEMENT_3D('',#508,#417,#418);
#361=AXIS2_PLACEMENT_3D('',#509,#419,#420);
#362=AXIS2_PLACEMENT_3D('',#510,#421,#422);
#363=AXIS2_PLACEMENT_3D('',#512,#423,#424);
#364=AXIS2_PLACEMENT_3D('',#513,#425,#426);
#365=AXIS2_PLACEMENT_3D('',#515,#427,#428);
#366=AXIS2_PLACEMENT_3D('',#516,#429,#430);
#367=AXIS2_PLACEMENT_3D('',#518,#431,#432);
#368=AXIS2_PLACEMENT_3D('',#520,#433,#434);
#369=AXIS2_PLACEMENT_3D('',#521,#435,#436);
#370=AXIS2_PLACEMENT_3D('',#523,#437,#438);
#371=AXIS2_PLACEMENT_3D('',#524,#439,#440);
#372=AXIS2_PLACEMENT_3D('',#526,#441,#442);
#373=AXIS2_PLACEMENT_3D('',#527,#443,#444);
#374=AXIS2_PLACEMENT_3D('',#529,#445,#446);
#375=AXIS2_PLACEMENT_3D('',#530,#447,#448);
#376=AXIS2_PLACEMENT_3D('',#532,#449,#450);
#377=AXIS2_PLACEMENT_3D('',#538,#453,#454);
#378=AXIS2_PLACEMENT_3D('',#541,#456,#457);
#379=AXIS2_PLACEMENT_3D('',#542,#458,#459);
#380=AXIS2_PLACEMENT_3D('',#558,#462,#463);
#381=AXIS2_PLACEMENT_3D('',#559,#464,#465);
#382=AXIS2_PLACEMENT_3D('',#563,#468,#469);
#383=AXIS2_PLACEMENT_3D('',#566,#471,#472);
#384=AXIS2_PLACEMENT_3D('',#567,#473,#474);
#385=AXIS2_PLACEMENT_3D('',#569,#476,#477);
#386=AXIS2_PLACEMENT_3D('',#570,#478,#479);
#387=DIRECTION('',(0.,0.,1.));
#388=DIRECTION('',(1.,0.,0.));
#389=DIRECTION('',(0.,0.,1.));
#390=DIRECTION('',(1.,0.,0.));
#391=DIRECTION('',(0.,0.,1.));
#392=DIRECTION('',(1.,0.,0.));
#393=DIRECTION('',(0.,0.,1.));
#394=DIRECTION('',(1.,0.,0.));
#395=DIRECTION('',(6.54507742853753E-8,-0.000584237198261318,-0.999999829333431));
#396=DIRECTION('',(-0.000112027722471603,0.999999823058325,-0.00058423720192747));
#397=DIRECTION('',(-6.54507742853753E-8,0.000584237198261318,0.999999829333431));
#398=DIRECTION('',(-0.999999993724893,-0.000112027741590993,0.));
#399=DIRECTION('',(-0.000112027722471627,0.999999823058325,-0.000584237201927603));
#400=DIRECTION('',(-0.999999993724892,-0.000112027741590993,0.));
#401=DIRECTION('',(6.54507742847005E-8,-0.000584237198261318,-0.999999829333431));
#402=DIRECTION('',(-0.999999993724892,-0.000112027741590993,0.));
#403=DIRECTION('',(6.54507742853753E-8,-0.000584237198261318,-0.999999829333431));
#404=DIRECTION('',(-0.999999993724893,-0.000112027741590993,1.72053596774797E-22));
#405=DIRECTION('',(-0.000112027722471603,0.999999823058325,-0.00058423720192747));
#406=DIRECTION('',(6.54507742847005E-8,-0.000584237198261318,-0.999999829333431));
#407=DIRECTION('',(-0.000112027722471603,0.999999823058325,-0.00058423720192747));
#408=DIRECTION('',(-0.999999993724893,-0.000112027741590993,1.72053538047228E-22));
#409=DIRECTION('',(-6.54507742853753E-8,0.000584237198261318,0.999999829333431));
#410=DIRECTION('',(-0.000112027722471602,0.999999823058325,-0.000584237201927469));
#411=DIRECTION('',(-6.54507742853753E-8,0.000584237198261318,0.999999829333431));
#412=DIRECTION('',(-0.999999993724892,-0.000112027741590993,0.));
#413=DIRECTION('',(0.000112027722471603,-0.999999823058325,0.00058423720192747));
#414=DIRECTION('',(-6.54507742847005E-8,0.000584237198261318,0.999999829333431));
#415=DIRECTION('',(-0.999999993724893,-0.000112027741590993,0.));
#416=DIRECTION('',(-0.000112027722471338,0.999999823058325,-0.000584237201927603));
#417=DIRECTION('',(-0.999999993724892,-0.000112027741590993,0.));
#418=DIRECTION('',(6.5450774429839E-8,-0.000584237198261318,-0.999999829333431));
#419=DIRECTION('',(-0.999999993724892,-0.000112027741590993,0.));
#420=DIRECTION('',(6.54507742864352E-8,-0.000584237198261318,-0.999999829333431));
#421=DIRECTION('',(0.,0.,-1.));
#422=DIRECTION('',(0.,-1.,0.));
#423=DIRECTION('',(0.,0.,1.));
#424=DIRECTION('',(0.,-1.,0.));
#425=DIRECTION('',(0.,0.,-1.));
#426=DIRECTION('',(-1.,0.,0.));
#427=DIRECTION('',(0.,0.,-1.));
#428=DIRECTION('',(1.,0.,0.));
#429=DIRECTION('',(0.,0.,-1.));
#430=DIRECTION('',(1.,0.,0.));
#431=DIRECTION('',(0.,0.,1.));
#432=DIRECTION('',(1.,0.,0.));
#433=DIRECTION('',(0.,0.,-1.));
#434=DIRECTION('',(1.,0.,4.80522195770866E-17));
#435=DIRECTION('',(0.,0.,1.));
#436=DIRECTION('',(1.,0.,0.));
#437=DIRECTION('',(0.,0.,-1.));
#438=DIRECTION('',(1.,0.,0.));
#439=DIRECTION('',(0.,0.,-1.));
#440=DIRECTION('',(-1.,0.,0.));
#441=DIRECTION('',(0.,0.,-1.));
#442=DIRECTION('',(1.,0.,9.57397873607421E-17));
#443=DIRECTION('',(0.,0.,1.));
#444=DIRECTION('',(1.,0.,0.));
#445=DIRECTION('',(0.,0.,1.));
#446=DIRECTION('',(-1.,0.,0.));
#447=DIRECTION('',(0.,0.,-1.));
#448=DIRECTION('',(-1.,0.,0.));
#449=DIRECTION('',(0.,0.,1.));
#450=DIRECTION('',(-1.,0.,0.));
#451=DIRECTION('',(0.,-1.,0.));
#452=DIRECTION('',(-1.,0.,0.));
#453=DIRECTION('',(0.,0.,-1.));
#454=DIRECTION('',(-1.,0.,0.));
#455=DIRECTION('',(-1.,0.,0.));
#456=DIRECTION('',(0.,0.,-1.));
#457=DIRECTION('',(1.,0.,0.));
#458=DIRECTION('',(0.,0.,1.));
#459=DIRECTION('',(1.,0.,0.));
#460=DIRECTION('',(0.,0.,-1.));
#461=DIRECTION('',(0.,0.,1.));
#462=DIRECTION('',(0.,0.,-1.));
#463=DIRECTION('',(1.,0.,0.));
#464=DIRECTION('',(0.,0.,-1.));
#465=DIRECTION('',(1.,0.,-7.38366599348507E-18));
#466=DIRECTION('',(1.,0.,-1.002197266075E-10));
#467=DIRECTION('',(0.,0.,1.));
#468=DIRECTION('',(0.,1.,0.));
#469=DIRECTION('',(0.,0.,-1.));
#470=DIRECTION('',(1.,0.,-1.057901926452E-10));
#471=DIRECTION('',(1.,0.,0.));
#472=DIRECTION('',(0.,-1.,0.));
#473=DIRECTION('',(-1.,0.,0.));
#474=DIRECTION('',(0.,0.,-1.));
#475=DIRECTION('',(0.,0.,-1.));
#476=DIRECTION('',(-1.,0.,0.));
#477=DIRECTION('',(0.,0.,-1.));
#478=DIRECTION('',(0.,-1.,0.));
#479=DIRECTION('',(0.,0.,1.));
#480=CARTESIAN_POINT('',(0.,0.,0.));
#481=CARTESIAN_POINT('',(0.,0.,0.));
#482=CARTESIAN_POINT('',(0.,0.,0.));
#483=CARTESIAN_POINT('',(0.,0.,-79.00000000059));
#484=CARTESIAN_POINT('',(-14.5006731153711,6.00949441604607,5.49649210212319));
#485=CARTESIAN_POINT('',(-14.5006731677317,6.00996180580468,6.29649196558994));
#486=CARTESIAN_POINT('',(-14.5006720027079,5.99956238367562,-11.5035049965451));
#487=CARTESIAN_POINT('',(-14.49941845724,-5.19003621244857,6.30303542225152));
#488=CARTESIAN_POINT('',(-14.499328835062,-5.99003607089523,6.30350281201307));
#489=CARTESIAN_POINT('',(-14.4993276700382,-6.00043549302428,-11.496494150122));
#490=CARTESIAN_POINT('',(-14.4993276700382,-6.00043549302428,-11.496494150122));
#491=CARTESIAN_POINT('',(-14.4999998363731,-0.000436554674327296,-11.4999995733336));
#492=CARTESIAN_POINT('',(-14.5,0.001024038321326,-9.));
#493=CARTESIAN_POINT('',(-14.5006720027079,5.99956238367562,-11.5035049965451));
#494=CARTESIAN_POINT('',(-23.5006719462319,5.9985541340013,-11.5035049965451));
#495=CARTESIAN_POINT('',(-23.5006730588951,6.00848616637175,5.49649210212319));
#496=CARTESIAN_POINT('',(-23.5006731112557,6.00895355613036,6.29649196558994));
#497=CARTESIAN_POINT('',(-14.5006731677317,6.00996180580468,6.29649196558994));
#498=CARTESIAN_POINT('',(-14.5006731677317,6.00996180580468,6.29649196558993));
#499=CARTESIAN_POINT('',(-23.499418400764,-5.19104446212289,6.30303542225152));
#500=CARTESIAN_POINT('',(-23.499328778586,-5.99104432056955,6.30350281201307));
#501=CARTESIAN_POINT('',(-14.499328835062,-5.99003607089523,6.30350281201307));
#502=CARTESIAN_POINT('',(-14.499328835062,-5.99003607089523,6.30350281201307));
#503=CARTESIAN_POINT('',(-23.4993276135623,-6.0014437426986,-11.496494150122));
#504=CARTESIAN_POINT('',(-23.4993276135623,-6.0014437426986,-11.496494150122));
#505=CARTESIAN_POINT('',(-14.4993276700382,-6.00043549302428,-11.496494150122));
#506=CARTESIAN_POINT('',(-14.4993276700382,-6.00043549302428,-11.496494150122));
#507=CARTESIAN_POINT('',(-23.4999997798971,-0.00144480434864623,-11.4999995733336));
#508=CARTESIAN_POINT('',(-14.4999998363731,-0.000436554674327296,-11.4999995733336));
#509=CARTESIAN_POINT('',(-23.499999943524,1.5788647007064E-5,-9.));
#510=CARTESIAN_POINT('',(0.,0.,0.));
#511=CARTESIAN_POINT('',(0.,-14.,0.));
#512=CARTESIAN_POINT('',(0.,0.,0.));
#513=CARTESIAN_POINT('',(0.,0.,30.));
#514=CARTESIAN_POINT('',(-14.,0.,30.));
#515=CARTESIAN_POINT('',(0.,0.,32.5));
#516=CARTESIAN_POINT('',(0.,0.,30.));
#517=CARTESIAN_POINT('',(0.,0.,-73.0000000000032));
#518=CARTESIAN_POINT('',(0.,0.,-73.90932667397));
#519=CARTESIAN_POINT('',(1.575,0.,-73.90932667397));
#520=CARTESIAN_POINT('',(0.,0.,-73.45466333699));
#521=CARTESIAN_POINT('',(0.,0.,-75.92560981657));
#522=CARTESIAN_POINT('',(1.575,0.,-75.92560981657));
#523=CARTESIAN_POINT('',(0.,0.,-72.7));
#524=CARTESIAN_POINT('',(0.,0.,-79.));
#525=CARTESIAN_POINT('',(-3.35,0.,-79.));
#526=CARTESIAN_POINT('',(0.,0.,-77.46280490828));
#527=CARTESIAN_POINT('',(0.,0.,-79.));
#528=CARTESIAN_POINT('',(29.,0.,-79.));
#529=CARTESIAN_POINT('',(0.,0.,-79.));
#530=CARTESIAN_POINT('',(0.,0.,-21.07179676972));
#531=CARTESIAN_POINT('',(-29.,0.,-21.07179676972));
#532=CARTESIAN_POINT('',(0.,0.,-81.95));
#533=CARTESIAN_POINT('',(-14.5,0.,0.));
#534=CARTESIAN_POINT('',(-14.5,6.01,0.));
#535=CARTESIAN_POINT('',(-14.5,-6.01,0.));
#536=CARTESIAN_POINT('',(-14.5,-6.01,0.));
#537=CARTESIAN_POINT('',(-24.2668477557346,-6.01,0.));
#538=CARTESIAN_POINT('',(0.,0.,0.));
#539=CARTESIAN_POINT('',(-24.2668477557346,6.01,0.));
#540=CARTESIAN_POINT('',(0.,6.01,0.));
#541=CARTESIAN_POINT('',(0.,0.,0.));
#542=CARTESIAN_POINT('',(0.,0.,-20.));
#543=CARTESIAN_POINT('',(25.,0.,-20.));
#544=CARTESIAN_POINT('',(-24.2668477557346,-6.01,32.5));
#545=CARTESIAN_POINT('',(-24.2668477557346,-6.01,-11.9899999989676));
#546=CARTESIAN_POINT('',(-24.2668477557346,-6.01,-11.9899999989676));
#547=CARTESIAN_POINT('',(-24.2668477556668,-6.01000000027385,-13.5842696375999));
#548=CARTESIAN_POINT('',(-24.4462115576134,-5.35140564196012,-15.1391584976051));
#549=CARTESIAN_POINT('',(-24.8268496155217,-3.14361893884506,-17.3446616657989));
#550=CARTESIAN_POINT('',(-25.0001303575652,-1.58378577281295,-18.0005422527971));
#551=CARTESIAN_POINT('',(-24.999869473291,1.58789848158806,-17.99945704361));
#552=CARTESIAN_POINT('',(-24.8269399947264,3.14426328106787,-17.3462863447684));
#553=CARTESIAN_POINT('',(-24.444616896415,5.35948186580751,-15.1288133295729));
#554=CARTESIAN_POINT('',(-24.2668477556711,6.01000000025621,-13.5618983723311));
#555=CARTESIAN_POINT('',(-24.2668477557346,6.01,-11.9899999990204));
#556=CARTESIAN_POINT('',(-24.2668477557346,6.01,-11.9899999990204));
#557=CARTESIAN_POINT('',(-24.2668477557346,6.01,32.5));
#558=CARTESIAN_POINT('',(0.,0.,32.5));
#559=CARTESIAN_POINT('',(0.,0.,-20.53589838486));
#560=CARTESIAN_POINT('',(-23.77199826961,6.01,-11.98999999907));
#561=CARTESIAN_POINT('',(-14.5,6.01,-11.99));
#562=CARTESIAN_POINT('',(-14.5,6.01,-11.99));
#563=CARTESIAN_POINT('',(-14.5,6.01,-0.5));
#564=CARTESIAN_POINT('',(-23.77199826961,-6.01,-11.98999999902));
#565=CARTESIAN_POINT('',(-14.5,-6.01,-11.99));
#566=CARTESIAN_POINT('',(-14.5,0.,-11.99));
#567=CARTESIAN_POINT('',(-14.5,0.,-11.99));
#568=CARTESIAN_POINT('',(-14.5,-6.01,-0.5));
#569=CARTESIAN_POINT('',(-14.5,0.,0.));
#570=CARTESIAN_POINT('',(-14.5,-6.01,-11.99));
#571=MECHANICAL_DESIGN_GEOMETRIC_PRESENTATION_REPRESENTATION('',(#329,#330,
#331,#332,#333,#334),#572);
#572=(
GEOMETRIC_REPRESENTATION_CONTEXT(3)
GLOBAL_UNCERTAINTY_ASSIGNED_CONTEXT((#573))
GLOBAL_UNIT_ASSIGNED_CONTEXT((#579,#575,#574))
REPRESENTATION_CONTEXT('BM050W78050','TOP_LEVEL_ASSEMBLY_PART')
);
#573=UNCERTAINTY_MEASURE_WITH_UNIT(LENGTH_MEASURE(0.0508),#579,
'DISTANCE_ACCURACY_VALUE','Maximum Tolerance applied to model');
#574=(
NAMED_UNIT(*)
SI_UNIT($,.STERADIAN.)
SOLID_ANGLE_UNIT()
);
#575=(
CONVERSION_BASED_UNIT('DEGREE',#577)
NAMED_UNIT(#576)
PLANE_ANGLE_UNIT()
);
#576=DIMENSIONAL_EXPONENTS(0.,0.,0.,0.,0.,0.,0.);
#577=PLANE_ANGLE_MEASURE_WITH_UNIT(PLANE_ANGLE_MEASURE(0.0174532925),#578);
#578=(
NAMED_UNIT(*)
PLANE_ANGLE_UNIT()
SI_UNIT($,.RADIAN.)
);
#579=(
LENGTH_UNIT()
NAMED_UNIT(*)
SI_UNIT(.MILLI.,.METRE.)
);
ENDSEC;
END-ISO-10303-21;
