ISO-10303-21;
HEADER;
/* Generated by software containing ST-Developer
 * from STEP Tools, Inc. (www.steptools.com) 
 */
/* OPTION: using custom schema-name function */

FILE_DESCRIPTION(
/* description */ (''),
/* implementation_level */ '2;1');

FILE_NAME(
/* name */ 'BDA16BS25100.stp',
/* time_stamp */ '2013-12-21T10:06:37+06:00',
/* author */ (''),
/* organization */ (''),
/* preprocessor_version */ 'ST-DEVELOPER v11',
/* originating_system */ 'SIEMENS PLM Software NX 7.5',
/* authorisation */ '');

FILE_SCHEMA (('AUTOMOTIVE_DESIGN { 1 0 10303 214 1 1 1 1 }'));
ENDSEC;

DATA;
#10=SHAPE_REPRESENTATION_RELATIONSHIP('None',
'relationship between BDA16BS25100-None and BDA16BS25100-None',#22,#11);
#11=ADVANCED_BREP_SHAPE_REPRESENTATION('BDA16BS25100-None',(#40,#41),#483);
#12=SHAPE_DEFINITION_REPRESENTATION(#13,#22);
#13=PRODUCT_DEFINITION_SHAPE('','',#14);
#14=PRODUCT_DEFINITION(' ','',#16,#15);
#15=PRODUCT_DEFINITION_CONTEXT('part definition',#21,'design');
#16=PRODUCT_DEFINITION_FORMATION_WITH_SPECIFIED_SOURCE(' ',' ',#18,.NOT_KNOWN.);
#17=PRODUCT_RELATED_PRODUCT_CATEGORY('part','',(#18));
#18=PRODUCT('BDA16BS25100','BDA16BS25100',' ',(#19));
#19=PRODUCT_CONTEXT(' ',#21,'mechanical');
#20=APPLICATION_PROTOCOL_DEFINITION('international standard',
'automotive_design',2001,#21);
#21=APPLICATION_CONTEXT(
'core data for automotive mechanical design processes');
#22=SHAPE_REPRESENTATION('BDA16BS25100-None',(#301),#483);
#23=PRESENTATION_LAYER_ASSIGNMENT('2','Layer 2',(#40));
#24=PRESENTATION_LAYER_ASSIGNMENT('1','Layer 1',(#41));
#25=STYLED_ITEM('',(#27),#40);
#26=STYLED_ITEM('',(#28),#41);
#27=PRESENTATION_STYLE_ASSIGNMENT((#29));
#28=PRESENTATION_STYLE_ASSIGNMENT((#30));
#29=SURFACE_STYLE_USAGE(.BOTH.,#31);
#30=SURFACE_STYLE_USAGE(.BOTH.,#32);
#31=SURFACE_SIDE_STYLE('',(#33));
#32=SURFACE_SIDE_STYLE('',(#34));
#33=SURFACE_STYLE_FILL_AREA(#35);
#34=SURFACE_STYLE_FILL_AREA(#36);
#35=FILL_AREA_STYLE('',(#37));
#36=FILL_AREA_STYLE('',(#38));
#37=FILL_AREA_STYLE_COLOUR('',#39);
#38=FILL_AREA_STYLE_COLOUR('',#39);
#39=COLOUR_RGB('Medium Gray',0.490196078431373,0.490196078431373,0.490196078431373);
#40=MANIFOLD_SOLID_BREP('',#42);
#41=MANIFOLD_SOLID_BREP('',#43);
#42=CLOSED_SHELL('',(#63,#64,#65,#66,#67,#68,#69,#70,#71,#72,#73,#74));
#43=CLOSED_SHELL('',(#75,#76,#77,#78));
#44=CONICAL_SURFACE('',#309,12.3499999988,44.99999999591);
#45=CONICAL_SURFACE('',#315,12.3499999988,44.99999999591);
#46=CONICAL_SURFACE('',#325,7.74999999939,44.9999999953);
#47=CYLINDRICAL_SURFACE('',#307,12.5);
#48=CYLINDRICAL_SURFACE('',#316,12.5);
#49=CYLINDRICAL_SURFACE('',#321,5.);
#50=CYLINDRICAL_SURFACE('',#327,8.);
#51=FACE_OUTER_BOUND('',#150,.T.);
#52=FACE_OUTER_BOUND('',#151,.T.);
#53=FACE_OUTER_BOUND('',#152,.T.);
#54=FACE_OUTER_BOUND('',#153,.T.);
#55=FACE_OUTER_BOUND('',#154,.T.);
#56=FACE_OUTER_BOUND('',#155,.T.);
#57=FACE_OUTER_BOUND('',#156,.T.);
#58=FACE_OUTER_BOUND('',#157,.T.);
#59=FACE_OUTER_BOUND('',#158,.T.);
#60=FACE_OUTER_BOUND('',#159,.T.);
#61=FACE_OUTER_BOUND('',#162,.T.);
#62=FACE_OUTER_BOUND('',#167,.T.);
#63=ADVANCED_FACE('',(#128,#129,#130,#131,#132,#133,#134,#135),#79,.T.);
#64=ADVANCED_FACE('',(#51),#47,.T.);
#65=ADVANCED_FACE('',(#52),#44,.T.);
#66=ADVANCED_FACE('',(#53),#80,.F.);
#67=ADVANCED_FACE('',(#54),#81,.T.);
#68=ADVANCED_FACE('',(#55),#82,.T.);
#69=ADVANCED_FACE('',(#56),#45,.T.);
#70=ADVANCED_FACE('',(#57),#48,.T.);
#71=ADVANCED_FACE('',(#58),#83,.F.);
#72=ADVANCED_FACE('',(#59),#84,.T.);
#73=ADVANCED_FACE('',(#60),#85,.T.);
#74=ADVANCED_FACE('',(#136,#137),#49,.F.);
#75=ADVANCED_FACE('',(#61),#86,.F.);
#76=ADVANCED_FACE('',(#138,#139),#46,.T.);
#77=ADVANCED_FACE('',(#140,#141),#50,.T.);
#78=ADVANCED_FACE('',(#62),#87,.F.);
#79=PLANE('',#305);
#80=PLANE('',#311);
#81=PLANE('',#312);
#82=PLANE('',#313);
#83=PLANE('',#317);
#84=PLANE('',#318);
#85=PLANE('',#320);
#86=PLANE('',#323);
#87=PLANE('',#328);
#88=LINE('',#408,#108);
#89=LINE('',#413,#109);
#90=LINE('',#416,#110);
#91=LINE('',#419,#111);
#92=LINE('',#422,#112);
#93=LINE('',#425,#113);
#94=LINE('',#428,#114);
#95=LINE('',#431,#115);
#96=LINE('',#435,#116);
#97=LINE('',#437,#117);
#98=LINE('',#441,#118);
#99=LINE('',#443,#119);
#100=LINE('',#447,#120);
#101=LINE('',#451,#121);
#102=LINE('',#453,#122);
#103=LINE('',#455,#123);
#104=LINE('',#457,#124);
#105=LINE('',#459,#125);
#106=LINE('',#463,#126);
#107=LINE('',#465,#127);
#108=VECTOR('',#333,1.);
#109=VECTOR('',#336,1.);
#110=VECTOR('',#339,1.);
#111=VECTOR('',#340,1.);
#112=VECTOR('',#341,1.);
#113=VECTOR('',#342,1.);
#114=VECTOR('',#343,1.);
#115=VECTOR('',#344,1.);
#116=VECTOR('',#347,1.);
#117=VECTOR('',#348,1.);
#118=VECTOR('',#353,1.);
#119=VECTOR('',#354,1.);
#120=VECTOR('',#359,1.);
#121=VECTOR('',#362,1.);
#122=VECTOR('',#365,1.);
#123=VECTOR('',#366,1.);
#124=VECTOR('',#369,1.);
#125=VECTOR('',#372,1.);
#126=VECTOR('',#377,1.);
#127=VECTOR('',#380,1.);
#128=FACE_BOUND('',#142,.T.);
#129=FACE_BOUND('',#143,.T.);
#130=FACE_BOUND('',#144,.T.);
#131=FACE_BOUND('',#145,.T.);
#132=FACE_BOUND('',#146,.T.);
#133=FACE_BOUND('',#147,.T.);
#134=FACE_BOUND('',#148,.T.);
#135=FACE_BOUND('',#149,.T.);
#136=FACE_BOUND('',#160,.T.);
#137=FACE_BOUND('',#161,.T.);
#138=FACE_BOUND('',#163,.T.);
#139=FACE_BOUND('',#164,.T.);
#140=FACE_BOUND('',#165,.T.);
#141=FACE_BOUND('',#166,.T.);
#142=EDGE_LOOP('',(#168));
#143=EDGE_LOOP('',(#169,#170,#171,#172));
#144=EDGE_LOOP('',(#173,#174));
#145=EDGE_LOOP('',(#175,#176));
#146=EDGE_LOOP('',(#177,#178));
#147=EDGE_LOOP('',(#179,#180));
#148=EDGE_LOOP('',(#181,#182));
#149=EDGE_LOOP('',(#183,#184));
#150=EDGE_LOOP('',(#185,#186,#187,#188));
#151=EDGE_LOOP('',(#189,#190,#191,#192));
#152=EDGE_LOOP('',(#193,#194,#195,#196));
#153=EDGE_LOOP('',(#197,#198,#199,#200));
#154=EDGE_LOOP('',(#201,#202,#203,#204));
#155=EDGE_LOOP('',(#205,#206,#207,#208));
#156=EDGE_LOOP('',(#209,#210,#211,#212));
#157=EDGE_LOOP('',(#213,#214,#215,#216));
#158=EDGE_LOOP('',(#217,#218,#219,#220));
#159=EDGE_LOOP('',(#221));
#160=EDGE_LOOP('',(#222));
#161=EDGE_LOOP('',(#223));
#162=EDGE_LOOP('',(#224));
#163=EDGE_LOOP('',(#225));
#164=EDGE_LOOP('',(#226));
#165=EDGE_LOOP('',(#227));
#166=EDGE_LOOP('',(#228));
#167=EDGE_LOOP('',(#229));
#168=ORIENTED_EDGE('',*,*,#259,.F.);
#169=ORIENTED_EDGE('',*,*,#260,.T.);
#170=ORIENTED_EDGE('',*,*,#261,.T.);
#171=ORIENTED_EDGE('',*,*,#262,.T.);
#172=ORIENTED_EDGE('',*,*,#263,.F.);
#173=ORIENTED_EDGE('',*,*,#264,.F.);
#174=ORIENTED_EDGE('',*,*,#264,.T.);
#175=ORIENTED_EDGE('',*,*,#265,.F.);
#176=ORIENTED_EDGE('',*,*,#265,.T.);
#177=ORIENTED_EDGE('',*,*,#266,.F.);
#178=ORIENTED_EDGE('',*,*,#266,.T.);
#179=ORIENTED_EDGE('',*,*,#267,.F.);
#180=ORIENTED_EDGE('',*,*,#267,.T.);
#181=ORIENTED_EDGE('',*,*,#268,.F.);
#182=ORIENTED_EDGE('',*,*,#268,.T.);
#183=ORIENTED_EDGE('',*,*,#269,.F.);
#184=ORIENTED_EDGE('',*,*,#269,.T.);
#185=ORIENTED_EDGE('',*,*,#270,.T.);
#186=ORIENTED_EDGE('',*,*,#263,.T.);
#187=ORIENTED_EDGE('',*,*,#271,.T.);
#188=ORIENTED_EDGE('',*,*,#272,.F.);
#189=ORIENTED_EDGE('',*,*,#273,.T.);
#190=ORIENTED_EDGE('',*,*,#272,.T.);
#191=ORIENTED_EDGE('',*,*,#274,.F.);
#192=ORIENTED_EDGE('',*,*,#275,.F.);
#193=ORIENTED_EDGE('',*,*,#276,.F.);
#194=ORIENTED_EDGE('',*,*,#277,.T.);
#195=ORIENTED_EDGE('',*,*,#278,.T.);
#196=ORIENTED_EDGE('',*,*,#275,.T.);
#197=ORIENTED_EDGE('',*,*,#260,.F.);
#198=ORIENTED_EDGE('',*,*,#270,.F.);
#199=ORIENTED_EDGE('',*,*,#279,.F.);
#200=ORIENTED_EDGE('',*,*,#280,.F.);
#201=ORIENTED_EDGE('',*,*,#281,.T.);
#202=ORIENTED_EDGE('',*,*,#279,.T.);
#203=ORIENTED_EDGE('',*,*,#273,.F.);
#204=ORIENTED_EDGE('',*,*,#278,.F.);
#205=ORIENTED_EDGE('',*,*,#282,.T.);
#206=ORIENTED_EDGE('',*,*,#283,.T.);
#207=ORIENTED_EDGE('',*,*,#281,.F.);
#208=ORIENTED_EDGE('',*,*,#277,.F.);
#209=ORIENTED_EDGE('',*,*,#261,.F.);
#210=ORIENTED_EDGE('',*,*,#280,.T.);
#211=ORIENTED_EDGE('',*,*,#283,.F.);
#212=ORIENTED_EDGE('',*,*,#284,.T.);
#213=ORIENTED_EDGE('',*,*,#271,.F.);
#214=ORIENTED_EDGE('',*,*,#262,.F.);
#215=ORIENTED_EDGE('',*,*,#284,.F.);
#216=ORIENTED_EDGE('',*,*,#285,.F.);
#217=ORIENTED_EDGE('',*,*,#282,.F.);
#218=ORIENTED_EDGE('',*,*,#276,.T.);
#219=ORIENTED_EDGE('',*,*,#274,.T.);
#220=ORIENTED_EDGE('',*,*,#285,.T.);
#221=ORIENTED_EDGE('',*,*,#286,.T.);
#222=ORIENTED_EDGE('',*,*,#286,.F.);
#223=ORIENTED_EDGE('',*,*,#259,.T.);
#224=ORIENTED_EDGE('',*,*,#287,.T.);
#225=ORIENTED_EDGE('',*,*,#287,.F.);
#226=ORIENTED_EDGE('',*,*,#288,.T.);
#227=ORIENTED_EDGE('',*,*,#288,.F.);
#228=ORIENTED_EDGE('',*,*,#289,.F.);
#229=ORIENTED_EDGE('',*,*,#289,.T.);
#230=VERTEX_POINT('',#407);
#231=VERTEX_POINT('',#409);
#232=VERTEX_POINT('',#410);
#233=VERTEX_POINT('',#412);
#234=VERTEX_POINT('',#414);
#235=VERTEX_POINT('',#417);
#236=VERTEX_POINT('',#418);
#237=VERTEX_POINT('',#420);
#238=VERTEX_POINT('',#421);
#239=VERTEX_POINT('',#423);
#240=VERTEX_POINT('',#424);
#241=VERTEX_POINT('',#426);
#242=VERTEX_POINT('',#427);
#243=VERTEX_POINT('',#429);
#244=VERTEX_POINT('',#430);
#245=VERTEX_POINT('',#432);
#246=VERTEX_POINT('',#433);
#247=VERTEX_POINT('',#436);
#248=VERTEX_POINT('',#438);
#249=VERTEX_POINT('',#442);
#250=VERTEX_POINT('',#444);
#251=VERTEX_POINT('',#448);
#252=VERTEX_POINT('',#450);
#253=VERTEX_POINT('',#454);
#254=VERTEX_POINT('',#460);
#255=VERTEX_POINT('',#469);
#256=VERTEX_POINT('',#473);
#257=VERTEX_POINT('',#476);
#258=VERTEX_POINT('',#479);
#259=EDGE_CURVE('',#230,#230,#290,.T.);
#260=EDGE_CURVE('',#231,#232,#88,.T.);
#261=EDGE_CURVE('',#232,#233,#291,.T.);
#262=EDGE_CURVE('',#233,#234,#89,.T.);
#263=EDGE_CURVE('',#231,#234,#292,.T.);
#264=EDGE_CURVE('',#235,#236,#90,.T.);
#265=EDGE_CURVE('',#237,#238,#91,.T.);
#266=EDGE_CURVE('',#239,#240,#92,.T.);
#267=EDGE_CURVE('',#241,#242,#93,.T.);
#268=EDGE_CURVE('',#243,#244,#94,.T.);
#269=EDGE_CURVE('',#245,#246,#95,.T.);
#270=EDGE_CURVE('',#247,#231,#96,.T.);
#271=EDGE_CURVE('',#234,#248,#97,.T.);
#272=EDGE_CURVE('',#247,#248,#293,.T.);
#273=EDGE_CURVE('',#249,#247,#98,.T.);
#274=EDGE_CURVE('',#250,#248,#99,.T.);
#275=EDGE_CURVE('',#249,#250,#294,.T.);
#276=EDGE_CURVE('',#251,#250,#100,.T.);
#277=EDGE_CURVE('',#251,#252,#295,.T.);
#278=EDGE_CURVE('',#252,#249,#101,.T.);
#279=EDGE_CURVE('',#253,#247,#102,.T.);
#280=EDGE_CURVE('',#232,#253,#103,.T.);
#281=EDGE_CURVE('',#252,#253,#104,.T.);
#282=EDGE_CURVE('',#251,#254,#105,.T.);
#283=EDGE_CURVE('',#254,#253,#296,.T.);
#284=EDGE_CURVE('',#254,#233,#106,.T.);
#285=EDGE_CURVE('',#248,#254,#107,.T.);
#286=EDGE_CURVE('',#255,#255,#297,.T.);
#287=EDGE_CURVE('',#256,#256,#298,.T.);
#288=EDGE_CURVE('',#257,#257,#299,.T.);
#289=EDGE_CURVE('',#258,#258,#300,.T.);
#290=CIRCLE('',#302,5.);
#291=CIRCLE('',#303,12.5);
#292=CIRCLE('',#304,12.5);
#293=CIRCLE('',#306,12.5);
#294=CIRCLE('',#308,11.9999999982816);
#295=CIRCLE('',#310,11.9999999982815);
#296=CIRCLE('',#314,12.5);
#297=CIRCLE('',#319,5.);
#298=CIRCLE('',#322,7.499999998771);
#299=CIRCLE('',#324,8.);
#300=CIRCLE('',#326,8.);
#301=AXIS2_PLACEMENT_3D('',#405,#329,#330);
#302=AXIS2_PLACEMENT_3D('',#406,#331,#332);
#303=AXIS2_PLACEMENT_3D('',#411,#334,#335);
#304=AXIS2_PLACEMENT_3D('',#415,#337,#338);
#305=AXIS2_PLACEMENT_3D('',#434,#345,#346);
#306=AXIS2_PLACEMENT_3D('',#439,#349,#350);
#307=AXIS2_PLACEMENT_3D('',#440,#351,#352);
#308=AXIS2_PLACEMENT_3D('',#445,#355,#356);
#309=AXIS2_PLACEMENT_3D('',#446,#357,#358);
#310=AXIS2_PLACEMENT_3D('',#449,#360,#361);
#311=AXIS2_PLACEMENT_3D('',#452,#363,#364);
#312=AXIS2_PLACEMENT_3D('',#456,#367,#368);
#313=AXIS2_PLACEMENT_3D('',#458,#370,#371);
#314=AXIS2_PLACEMENT_3D('',#461,#373,#374);
#315=AXIS2_PLACEMENT_3D('',#462,#375,#376);
#316=AXIS2_PLACEMENT_3D('',#464,#378,#379);
#317=AXIS2_PLACEMENT_3D('',#466,#381,#382);
#318=AXIS2_PLACEMENT_3D('',#467,#383,#384);
#319=AXIS2_PLACEMENT_3D('',#468,#385,#386);
#320=AXIS2_PLACEMENT_3D('',#470,#387,#388);
#321=AXIS2_PLACEMENT_3D('',#471,#389,#390);
#322=AXIS2_PLACEMENT_3D('',#472,#391,#392);
#323=AXIS2_PLACEMENT_3D('',#474,#393,#394);
#324=AXIS2_PLACEMENT_3D('',#475,#395,#396);
#325=AXIS2_PLACEMENT_3D('',#477,#397,#398);
#326=AXIS2_PLACEMENT_3D('',#478,#399,#400);
#327=AXIS2_PLACEMENT_3D('',#480,#401,#402);
#328=AXIS2_PLACEMENT_3D('',#481,#403,#404);
#329=DIRECTION('',(0.,0.,1.));
#330=DIRECTION('',(1.,0.,0.));
#331=DIRECTION('',(0.,0.,-1.));
#332=DIRECTION('',(-1.,0.,0.));
#333=DIRECTION('',(0.,1.,0.));
#334=DIRECTION('',(0.,0.,-1.));
#335=DIRECTION('',(-1.,0.,0.));
#336=DIRECTION('',(0.,-1.,0.));
#337=DIRECTION('',(0.,0.,1.));
#338=DIRECTION('',(-1.,0.,0.));
#339=DIRECTION('',(0.,1.,0.));
#340=DIRECTION('',(0.,1.,0.));
#341=DIRECTION('',(0.,1.,0.));
#342=DIRECTION('',(0.,1.,0.));
#343=DIRECTION('',(0.,1.,0.));
#344=DIRECTION('',(0.,1.,0.));
#345=DIRECTION('',(0.,0.,-1.));
#346=DIRECTION('',(-1.,0.,0.));
#347=DIRECTION('',(-1.582771738757E-011,1.310220647522E-014,-1.));
#348=DIRECTION('',(-1.582746542206E-011,0.,1.));
#349=DIRECTION('',(0.,0.,1.));
#350=DIRECTION('',(-1.,0.,0.));
#351=DIRECTION('',(0.,0.,1.));
#352=DIRECTION('',(0.,-1.,0.));
#353=DIRECTION('',(-0.707106781345039,-1.57750262365509E-007,-0.707106781028039));
#354=DIRECTION('',(0.707106781345039,-1.57747046816209E-007,-0.707106781028039));
#355=DIRECTION('',(0.,0.,1.));
#356=DIRECTION('',(-1.,0.,0.));
#357=DIRECTION('',(0.,0.,-1.));
#358=DIRECTION('',(-1.,0.,-1.05330452589632E-016));
#359=DIRECTION('',(0.,-1.,0.));
#360=DIRECTION('',(0.,0.,1.));
#361=DIRECTION('',(-1.,0.,0.));
#362=DIRECTION('',(0.,-1.,0.));
#363=DIRECTION('',(0.,0.,-1.));
#364=DIRECTION('',(-1.,0.,0.));
#365=DIRECTION('',(0.,-1.,0.));
#366=DIRECTION('',(1.582897721512E-011,1.310220647522E-014,1.));
#367=DIRECTION('',(-1.,0.,0.));
#368=DIRECTION('',(0.,1.,0.));
#369=DIRECTION('',(-0.707106781345089,1.57760562172097E-007,-0.707106781027989));
#370=DIRECTION('',(-0.707106781186547,0.,0.707106781186547));
#371=DIRECTION('',(0.,-1.,0.));
#372=DIRECTION('',(0.707106781345089,1.57754750736498E-007,-0.707106781027989));
#373=DIRECTION('',(0.,0.,1.));
#374=DIRECTION('',(1.,0.,0.));
#375=DIRECTION('',(0.,0.,-1.));
#376=DIRECTION('',(-1.,0.,-6.586500085676E-018));
#377=DIRECTION('',(1.582822131859E-011,0.,-1.));
#378=DIRECTION('',(0.,0.,1.));
#379=DIRECTION('',(0.,1.,0.));
#380=DIRECTION('',(0.,1.,0.));
#381=DIRECTION('',(-1.,0.,0.));
#382=DIRECTION('',(0.,1.,0.));
#383=DIRECTION('',(0.707106781186547,0.,0.707106781186547));
#384=DIRECTION('',(0.,-1.,0.));
#385=DIRECTION('',(0.,0.,-1.));
#386=DIRECTION('',(-1.,0.,0.));
#387=DIRECTION('',(0.,0.,-1.));
#388=DIRECTION('',(1.,0.,0.));
#389=DIRECTION('',(0.,0.,-1.));
#390=DIRECTION('',(1.,0.,0.));
#391=DIRECTION('',(0.,0.,1.));
#392=DIRECTION('',(-0.435889894204716,0.900000000072334,0.));
#393=DIRECTION('',(0.,0.,-1.));
#394=DIRECTION('',(-1.,0.,0.));
#395=DIRECTION('',(0.,0.,1.));
#396=DIRECTION('',(-0.422742164327108,0.906250000000018,0.));
#397=DIRECTION('',(0.,0.,-1.));
#398=DIRECTION('',(-1.,0.,-3.09848896776828E-017));
#399=DIRECTION('',(0.,0.,-1.));
#400=DIRECTION('',(1.,0.,0.));
#401=DIRECTION('',(0.,0.,-1.));
#402=DIRECTION('',(-1.,0.,0.));
#403=DIRECTION('',(0.,0.,1.));
#404=DIRECTION('',(1.,0.,0.));
#405=CARTESIAN_POINT('',(0.,0.,0.));
#406=CARTESIAN_POINT('',(0.,0.,-16.));
#407=CARTESIAN_POINT('',(-5.,0.,-16.));
#408=CARTESIAN_POINT('',(-12.5,0.,-16.));
#409=CARTESIAN_POINT('',(-12.5,-37.5,-16.));
#410=CARTESIAN_POINT('',(-12.5,37.5,-16.));
#411=CARTESIAN_POINT('',(0.,37.5,-16.));
#412=CARTESIAN_POINT('',(12.5000000000253,37.5,-16.));
#413=CARTESIAN_POINT('',(12.5,-48.41229182759,-16.));
#414=CARTESIAN_POINT('',(12.5000000000111,-37.5,-16.));
#415=CARTESIAN_POINT('',(0.,-37.5,-16.));
#416=CARTESIAN_POINT('',(-5.62494444417009,-11.,-16.));
#417=CARTESIAN_POINT('',(-5.62494444417009,-7.59170962313392,-16.));
#418=CARTESIAN_POINT('',(-5.62494444417009,-7.40829037686608,-16.));
#419=CARTESIAN_POINT('',(-5.62494444417009,-13.5,-16.));
#420=CARTESIAN_POINT('',(-5.62494444417009,-10.0917096231359,-16.));
#421=CARTESIAN_POINT('',(-5.62494444417009,-9.90829037686608,-16.));
#422=CARTESIAN_POINT('',(-5.62494444417009,-13.5,-16.));
#423=CARTESIAN_POINT('',(-5.62494444417009,-12.5917096231359,-16.));
#424=CARTESIAN_POINT('',(-5.62494444417009,-12.4082903768641,-16.));
#425=CARTESIAN_POINT('',(-5.62494444417009,6.5,-16.));
#426=CARTESIAN_POINT('',(-5.62494444417009,7.40829037686608,-16.));
#427=CARTESIAN_POINT('',(-5.62494444417009,7.59170962313392,-16.));
#428=CARTESIAN_POINT('',(-5.62494444417009,6.5,-16.));
#429=CARTESIAN_POINT('',(-5.62494444417009,9.90829037686608,-16.));
#430=CARTESIAN_POINT('',(-5.62494444417009,10.0917096231359,-16.));
#431=CARTESIAN_POINT('',(-5.62494444417009,9.,-16.));
#432=CARTESIAN_POINT('',(-5.62494444417009,12.4082903768641,-16.));
#433=CARTESIAN_POINT('',(-5.62494444417009,12.5917096231359,-16.));
#434=CARTESIAN_POINT('',(0.,0.,-16.));
#435=CARTESIAN_POINT('',(-12.49999999978,-37.5,-0.5000000002232));
#436=CARTESIAN_POINT('',(-12.49999999978,-37.5,-0.5000000002232));
#437=CARTESIAN_POINT('',(12.5,-37.5,-14.6));
#438=CARTESIAN_POINT('',(12.5,-37.5,-0.5000000000047));
#439=CARTESIAN_POINT('',(0.,-37.5,-0.5000000000047));
#440=CARTESIAN_POINT('',(0.,-37.5,-16.01802365951));
#441=CARTESIAN_POINT('',(-12.19999999942,-37.49999993307,-0.2));
#442=CARTESIAN_POINT('',(-11.9999999993303,-37.4999998884515,0.));
#443=CARTESIAN_POINT('',(12.19999999942,-37.49999993307,-0.2));
#444=CARTESIAN_POINT('',(11.9999999993303,-37.4999998884524,0.));
#445=CARTESIAN_POINT('',(1.68753899743E-014,-37.5,0.));
#446=CARTESIAN_POINT('',(1.68753899743E-014,-37.5,-0.3500000005684));
#447=CARTESIAN_POINT('',(12.,0.,0.));
#448=CARTESIAN_POINT('',(11.9999999993303,37.4999998884502,-2.71050543121376E-017));
#449=CARTESIAN_POINT('',(3.28626015289E-014,37.5,0.));
#450=CARTESIAN_POINT('',(-11.9999999993303,37.4999998884486,-2.71050543121376E-017));
#451=CARTESIAN_POINT('',(-12.,0.,0.));
#452=CARTESIAN_POINT('',(0.,0.,0.));
#453=CARTESIAN_POINT('',(-12.49999999978,37.5,-0.5000000002232));
#454=CARTESIAN_POINT('',(-12.49999999978,37.5,-0.5000000002232));
#455=CARTESIAN_POINT('',(-12.5,37.5,-14.6));
#456=CARTESIAN_POINT('',(-12.5,-48.41229182759,-16.));
#457=CARTESIAN_POINT('',(-12.19999999942,37.49999993307,-0.2));
#458=CARTESIAN_POINT('',(-12.25,0.,-0.25));
#459=CARTESIAN_POINT('',(12.19999999942,37.49999993307,-0.2));
#460=CARTESIAN_POINT('',(12.49999999978,37.5,-0.5000000002232));
#461=CARTESIAN_POINT('',(0.,37.5,-0.5000000000047));
#462=CARTESIAN_POINT('',(3.28626015289E-014,37.5,-0.3500000005685));
#463=CARTESIAN_POINT('',(12.49999999978,37.5,-0.5000000002232));
#464=CARTESIAN_POINT('',(0.,37.5,-16.01802365951));
#465=CARTESIAN_POINT('',(12.49999999978,-37.5,-0.5000000002232));
#466=CARTESIAN_POINT('',(12.5,-48.41229182759,-16.));
#467=CARTESIAN_POINT('',(12.25,0.,-0.25));
#468=CARTESIAN_POINT('',(0.,0.,-7.5));
#469=CARTESIAN_POINT('',(-5.,0.,-7.5));
#470=CARTESIAN_POINT('',(0.,0.,-7.5));
#471=CARTESIAN_POINT('',(0.,0.,10.25));
#472=CARTESIAN_POINT('',(3.441691376338E-014,-1.15463194561E-014,29.5));
#473=CARTESIAN_POINT('',(-3.26917420599963,6.7499999994364,29.5));
#474=CARTESIAN_POINT('',(0.,0.,29.5));
#475=CARTESIAN_POINT('',(0.,0.,28.99999999869));
#476=CARTESIAN_POINT('',(-3.38193731461686,7.25000000000014,28.99999999869));
#477=CARTESIAN_POINT('',(3.441691376338E-014,-1.15463194561E-014,29.24999999934));
#478=CARTESIAN_POINT('',(0.,0.,0.));
#479=CARTESIAN_POINT('',(8.,0.,0.));
#480=CARTESIAN_POINT('',(0.,0.,0.));
#481=CARTESIAN_POINT('',(0.,0.,0.));
#482=MECHANICAL_DESIGN_GEOMETRIC_PRESENTATION_REPRESENTATION('',(#25,#26),
#483);
#483=(
GEOMETRIC_REPRESENTATION_CONTEXT(3)
GLOBAL_UNCERTAINTY_ASSIGNED_CONTEXT((#484))
GLOBAL_UNIT_ASSIGNED_CONTEXT((#490,#486,#485))
REPRESENTATION_CONTEXT('BDA16BS25100','TOP_LEVEL_ASSEMBLY_PART')
);
#484=UNCERTAINTY_MEASURE_WITH_UNIT(LENGTH_MEASURE(2.E-005),#490,
'DISTANCE_ACCURACY_VALUE','Maximum Tolerance applied to model');
#485=(
NAMED_UNIT(*)
SI_UNIT($,.STERADIAN.)
SOLID_ANGLE_UNIT()
);
#486=(
CONVERSION_BASED_UNIT('DEGREE',#488)
NAMED_UNIT(#487)
PLANE_ANGLE_UNIT()
);
#487=DIMENSIONAL_EXPONENTS(0.,0.,0.,0.,0.,0.,0.);
#488=PLANE_ANGLE_MEASURE_WITH_UNIT(PLANE_ANGLE_MEASURE(0.0174532925),#489);
#489=(
NAMED_UNIT(*)
PLANE_ANGLE_UNIT()
SI_UNIT($,.RADIAN.)
);
#490=(
LENGTH_UNIT()
NAMED_UNIT(*)
SI_UNIT(.MILLI.,.METRE.)
);
ENDSEC;
END-ISO-10303-21;
