ISO-10303-21;
HEADER;
/* Generated by software containing ST-Developer
 * from STEP Tools, Inc. (www.steptools.com) 
 */
/* OPTION: using custom schema-name function */

FILE_DESCRIPTION(
/* description */ (''),
/* implementation_level */ '2;1');

FILE_NAME(
/* name */ 'A76013.stp',
/* time_stamp */ '2017-10-27T11:34:31+05:00',
/* author */ (''),
/* organization */ (''),
/* preprocessor_version */ 'ST-DEVELOPER v16',
/* originating_system */ 'SIEMENS PLM Software NX 11.0',
/* authorisation */ '');

FILE_SCHEMA (('AUTOMOTIVE_DESIGN { 1 0 10303 214 3 1 1 1 }'));
ENDSEC;

DATA;
#10=CONSTRUCTIVE_GEOMETRY_REPRESENTATION_RELATIONSHIP(
'supplemental geometry','',#32,#11);
#11=CONSTRUCTIVE_GEOMETRY_REPRESENTATION('supplemental geometry',(#373,
#374,#375),#612);
#12=PROPERTY_DEFINITION_REPRESENTATION(#16,#14);
#13=PROPERTY_DEFINITION_REPRESENTATION(#17,#15);
#14=REPRESENTATION('',(#18),#612);
#15=REPRESENTATION('',(#19),#612);
#16=PROPERTY_DEFINITION('pmi validation property','',#23);
#17=PROPERTY_DEFINITION('pmi validation property','',#23);
#18=VALUE_REPRESENTATION_ITEM('number of annotations',COUNT_MEASURE(0.));
#19=VALUE_REPRESENTATION_ITEM('number of views',COUNT_MEASURE(0.));
#20=SHAPE_REPRESENTATION_RELATIONSHIP('None',
'relationship between A76013-None and A76013-None',#32,#21);
#21=ADVANCED_BREP_SHAPE_REPRESENTATION('A76013-None',(#48,#49,#50),#612);
#22=SHAPE_DEFINITION_REPRESENTATION(#23,#32);
#23=PRODUCT_DEFINITION_SHAPE('','',#24);
#24=PRODUCT_DEFINITION(' ','',#26,#25);
#25=PRODUCT_DEFINITION_CONTEXT('part definition',#31,'design');
#26=PRODUCT_DEFINITION_FORMATION_WITH_SPECIFIED_SOURCE(' ',' ',#28,
 .NOT_KNOWN.);
#27=PRODUCT_RELATED_PRODUCT_CATEGORY('part','',(#28));
#28=PRODUCT('A76013','A76013',' ',(#29));
#29=PRODUCT_CONTEXT(' ',#31,'mechanical');
#30=APPLICATION_PROTOCOL_DEFINITION('international standard',
'automotive_design',2010,#31);
#31=APPLICATION_CONTEXT(
'core data for automotive mechanical design processes');
#32=SHAPE_REPRESENTATION('A76013-None',(#372),#612);
#33=SURFACE_STYLE_USAGE(.BOTH.,#36);
#34=SURFACE_STYLE_USAGE(.BOTH.,#37);
#35=SURFACE_STYLE_USAGE(.BOTH.,#38);
#36=SURFACE_SIDE_STYLE('',(#39));
#37=SURFACE_SIDE_STYLE('',(#40));
#38=SURFACE_SIDE_STYLE('',(#41));
#39=SURFACE_STYLE_FILL_AREA(#42);
#40=SURFACE_STYLE_FILL_AREA(#43);
#41=SURFACE_STYLE_FILL_AREA(#44);
#42=FILL_AREA_STYLE('',(#45));
#43=FILL_AREA_STYLE('',(#46));
#44=FILL_AREA_STYLE('',(#47));
#45=FILL_AREA_STYLE_COLOUR('',#367);
#46=FILL_AREA_STYLE_COLOUR('',#367);
#47=FILL_AREA_STYLE_COLOUR('',#368);
#48=MANIFOLD_SOLID_BREP('NOCUT',#51);
#49=MANIFOLD_SOLID_BREP('NOCUT',#52);
#50=MANIFOLD_SOLID_BREP('NOCUT',#53);
#51=CLOSED_SHELL('',(#72,#73,#74,#75,#76,#77,#78,#79,#80,#81,#82,#83));
#52=CLOSED_SHELL('',(#84,#85,#86));
#53=CLOSED_SHELL('',(#87,#88,#89,#90,#91,#92));
#54=CONICAL_SURFACE('',#383,26.5,45.);
#55=CYLINDRICAL_SURFACE('',#382,27.);
#56=CYLINDRICAL_SURFACE('',#389,8.);
#57=CYLINDRICAL_SURFACE('',#395,6.);
#58=CYLINDRICAL_SURFACE('',#399,14.);
#59=CYLINDRICAL_SURFACE('',#407,6.);
#60=ELLIPSE('',#381,38.1837661840736,27.);
#61=FACE_BOUND('',#126,.T.);
#62=FACE_BOUND('',#127,.T.);
#63=FACE_BOUND('',#130,.T.);
#64=FACE_BOUND('',#131,.T.);
#65=FACE_BOUND('',#133,.T.);
#66=FACE_BOUND('',#134,.T.);
#67=FACE_BOUND('',#141,.T.);
#68=FACE_BOUND('',#142,.T.);
#69=B_SPLINE_CURVE_WITH_KNOTS('',3,(#519,#520,#521,#522,#523,#524,#525,
#526,#527,#528),.UNSPECIFIED.,.F.,.F.,(4,2,2,2,4),(0.,0.25,0.5,0.75,1.),
 .UNSPECIFIED.);
#70=B_SPLINE_CURVE_WITH_KNOTS('',3,(#547,#548,#549,#550),.UNSPECIFIED.,
 .F.,.F.,(4,4),(0.,1.),.UNSPECIFIED.);
#71=B_SPLINE_CURVE_WITH_KNOTS('',3,(#551,#552,#553,#554),.UNSPECIFIED.,
 .F.,.F.,(4,4),(0.,1.),.UNSPECIFIED.);
#72=ADVANCED_FACE('',(#108),#93,.F.);
#73=ADVANCED_FACE('',(#61,#62),#55,.T.);
#74=ADVANCED_FACE('',(#109),#54,.T.);
#75=ADVANCED_FACE('',(#110),#94,.F.);
#76=ADVANCED_FACE('',(#63,#64),#95,.T.);
#77=ADVANCED_FACE('',(#111),#96,.F.);
#78=ADVANCED_FACE('',(#65,#66),#56,.F.);
#79=ADVANCED_FACE('',(#112),#97,.T.);
#80=ADVANCED_FACE('',(#113),#98,.T.);
#81=ADVANCED_FACE('',(#114),#99,.F.);
#82=ADVANCED_FACE('',(#115),#100,.F.);
#83=ADVANCED_FACE('',(#116),#57,.F.);
#84=ADVANCED_FACE('',(#117),#101,.F.);
#85=ADVANCED_FACE('',(#67,#68),#58,.T.);
#86=ADVANCED_FACE('',(#118),#102,.F.);
#87=ADVANCED_FACE('',(#119),#103,.F.);
#88=ADVANCED_FACE('',(#120),#104,.T.);
#89=ADVANCED_FACE('',(#121),#105,.T.);
#90=ADVANCED_FACE('',(#122),#106,.T.);
#91=ADVANCED_FACE('',(#123),#59,.T.);
#92=ADVANCED_FACE('',(#124),#107,.T.);
#93=PLANE('',#377);
#94=PLANE('',#384);
#95=PLANE('',#386);
#96=PLANE('',#387);
#97=PLANE('',#390);
#98=PLANE('',#392);
#99=PLANE('',#393);
#100=PLANE('',#394);
#101=PLANE('',#397);
#102=PLANE('',#400);
#103=PLANE('',#402);
#104=PLANE('',#403);
#105=PLANE('',#404);
#106=PLANE('',#405);
#107=PLANE('',#408);
#108=FACE_OUTER_BOUND('',#125,.T.);
#109=FACE_OUTER_BOUND('',#128,.T.);
#110=FACE_OUTER_BOUND('',#129,.T.);
#111=FACE_OUTER_BOUND('',#132,.T.);
#112=FACE_OUTER_BOUND('',#135,.T.);
#113=FACE_OUTER_BOUND('',#136,.T.);
#114=FACE_OUTER_BOUND('',#137,.T.);
#115=FACE_OUTER_BOUND('',#138,.T.);
#116=FACE_OUTER_BOUND('',#139,.T.);
#117=FACE_OUTER_BOUND('',#140,.T.);
#118=FACE_OUTER_BOUND('',#143,.T.);
#119=FACE_OUTER_BOUND('',#144,.T.);
#120=FACE_OUTER_BOUND('',#145,.T.);
#121=FACE_OUTER_BOUND('',#146,.T.);
#122=FACE_OUTER_BOUND('',#147,.T.);
#123=FACE_OUTER_BOUND('',#148,.T.);
#124=FACE_OUTER_BOUND('',#149,.T.);
#125=EDGE_LOOP('',(#161,#162,#163,#164));
#126=EDGE_LOOP('',(#165,#166,#167,#168,#169));
#127=EDGE_LOOP('',(#170,#171,#172,#173));
#128=EDGE_LOOP('',(#174,#175,#176,#177,#178));
#129=EDGE_LOOP('',(#179,#180));
#130=EDGE_LOOP('',(#181));
#131=EDGE_LOOP('',(#182,#183));
#132=EDGE_LOOP('',(#184,#185,#186,#187));
#133=EDGE_LOOP('',(#188));
#134=EDGE_LOOP('',(#189));
#135=EDGE_LOOP('',(#190));
#136=EDGE_LOOP('',(#191,#192,#193,#194));
#137=EDGE_LOOP('',(#195,#196,#197,#198,#199));
#138=EDGE_LOOP('',(#200,#201,#202,#203,#204));
#139=EDGE_LOOP('',(#205,#206,#207,#208));
#140=EDGE_LOOP('',(#209));
#141=EDGE_LOOP('',(#210));
#142=EDGE_LOOP('',(#211));
#143=EDGE_LOOP('',(#212));
#144=EDGE_LOOP('',(#213,#214,#215,#216));
#145=EDGE_LOOP('',(#217,#218,#219,#220));
#146=EDGE_LOOP('',(#221,#222,#223,#224));
#147=EDGE_LOOP('',(#225,#226,#227,#228));
#148=EDGE_LOOP('',(#229,#230,#231,#232));
#149=EDGE_LOOP('',(#233,#234,#235,#236));
#150=CIRCLE('',#376,25.5);
#151=CIRCLE('',#378,27.);
#152=CIRCLE('',#379,27.);
#153=CIRCLE('',#380,27.);
#154=CIRCLE('',#385,8.);
#155=CIRCLE('',#388,8.);
#156=CIRCLE('',#391,6.);
#157=CIRCLE('',#396,14.);
#158=CIRCLE('',#398,14.);
#159=CIRCLE('',#401,6.);
#160=CIRCLE('',#406,6.);
#161=ORIENTED_EDGE('',*,*,#264,.T.);
#162=ORIENTED_EDGE('',*,*,#265,.T.);
#163=ORIENTED_EDGE('',*,*,#266,.T.);
#164=ORIENTED_EDGE('',*,*,#267,.F.);
#165=ORIENTED_EDGE('',*,*,#268,.F.);
#166=ORIENTED_EDGE('',*,*,#269,.F.);
#167=ORIENTED_EDGE('',*,*,#270,.T.);
#168=ORIENTED_EDGE('',*,*,#271,.T.);
#169=ORIENTED_EDGE('',*,*,#272,.T.);
#170=ORIENTED_EDGE('',*,*,#273,.F.);
#171=ORIENTED_EDGE('',*,*,#274,.T.);
#172=ORIENTED_EDGE('',*,*,#275,.T.);
#173=ORIENTED_EDGE('',*,*,#276,.F.);
#174=ORIENTED_EDGE('',*,*,#270,.F.);
#175=ORIENTED_EDGE('',*,*,#277,.T.);
#176=ORIENTED_EDGE('',*,*,#265,.F.);
#177=ORIENTED_EDGE('',*,*,#278,.F.);
#178=ORIENTED_EDGE('',*,*,#271,.F.);
#179=ORIENTED_EDGE('',*,*,#276,.T.);
#180=ORIENTED_EDGE('',*,*,#279,.F.);
#181=ORIENTED_EDGE('',*,*,#280,.F.);
#182=ORIENTED_EDGE('',*,*,#281,.T.);
#183=ORIENTED_EDGE('',*,*,#274,.F.);
#184=ORIENTED_EDGE('',*,*,#273,.T.);
#185=ORIENTED_EDGE('',*,*,#279,.T.);
#186=ORIENTED_EDGE('',*,*,#275,.F.);
#187=ORIENTED_EDGE('',*,*,#281,.F.);
#188=ORIENTED_EDGE('',*,*,#282,.F.);
#189=ORIENTED_EDGE('',*,*,#280,.T.);
#190=ORIENTED_EDGE('',*,*,#282,.T.);
#191=ORIENTED_EDGE('',*,*,#267,.T.);
#192=ORIENTED_EDGE('',*,*,#283,.F.);
#193=ORIENTED_EDGE('',*,*,#284,.F.);
#194=ORIENTED_EDGE('',*,*,#285,.F.);
#195=ORIENTED_EDGE('',*,*,#277,.F.);
#196=ORIENTED_EDGE('',*,*,#269,.T.);
#197=ORIENTED_EDGE('',*,*,#286,.T.);
#198=ORIENTED_EDGE('',*,*,#283,.T.);
#199=ORIENTED_EDGE('',*,*,#266,.F.);
#200=ORIENTED_EDGE('',*,*,#272,.F.);
#201=ORIENTED_EDGE('',*,*,#278,.T.);
#202=ORIENTED_EDGE('',*,*,#264,.F.);
#203=ORIENTED_EDGE('',*,*,#285,.T.);
#204=ORIENTED_EDGE('',*,*,#287,.F.);
#205=ORIENTED_EDGE('',*,*,#287,.T.);
#206=ORIENTED_EDGE('',*,*,#284,.T.);
#207=ORIENTED_EDGE('',*,*,#286,.F.);
#208=ORIENTED_EDGE('',*,*,#268,.T.);
#209=ORIENTED_EDGE('',*,*,#288,.F.);
#210=ORIENTED_EDGE('',*,*,#288,.T.);
#211=ORIENTED_EDGE('',*,*,#289,.F.);
#212=ORIENTED_EDGE('',*,*,#289,.T.);
#213=ORIENTED_EDGE('',*,*,#290,.F.);
#214=ORIENTED_EDGE('',*,*,#291,.F.);
#215=ORIENTED_EDGE('',*,*,#292,.F.);
#216=ORIENTED_EDGE('',*,*,#293,.F.);
#217=ORIENTED_EDGE('',*,*,#294,.T.);
#218=ORIENTED_EDGE('',*,*,#295,.F.);
#219=ORIENTED_EDGE('',*,*,#296,.F.);
#220=ORIENTED_EDGE('',*,*,#290,.T.);
#221=ORIENTED_EDGE('',*,*,#291,.T.);
#222=ORIENTED_EDGE('',*,*,#296,.T.);
#223=ORIENTED_EDGE('',*,*,#297,.F.);
#224=ORIENTED_EDGE('',*,*,#298,.F.);
#225=ORIENTED_EDGE('',*,*,#292,.T.);
#226=ORIENTED_EDGE('',*,*,#298,.T.);
#227=ORIENTED_EDGE('',*,*,#299,.F.);
#228=ORIENTED_EDGE('',*,*,#300,.F.);
#229=ORIENTED_EDGE('',*,*,#300,.T.);
#230=ORIENTED_EDGE('',*,*,#301,.F.);
#231=ORIENTED_EDGE('',*,*,#294,.F.);
#232=ORIENTED_EDGE('',*,*,#293,.T.);
#233=ORIENTED_EDGE('',*,*,#301,.T.);
#234=ORIENTED_EDGE('',*,*,#299,.T.);
#235=ORIENTED_EDGE('',*,*,#297,.T.);
#236=ORIENTED_EDGE('',*,*,#295,.T.);
#237=VERTEX_POINT('',#511);
#238=VERTEX_POINT('',#512);
#239=VERTEX_POINT('',#514);
#240=VERTEX_POINT('',#516);
#241=VERTEX_POINT('',#529);
#242=VERTEX_POINT('',#530);
#243=VERTEX_POINT('',#532);
#244=VERTEX_POINT('',#534);
#245=VERTEX_POINT('',#536);
#246=VERTEX_POINT('',#539);
#247=VERTEX_POINT('',#540);
#248=VERTEX_POINT('',#542);
#249=VERTEX_POINT('',#544);
#250=VERTEX_POINT('',#559);
#251=VERTEX_POINT('',#564);
#252=VERTEX_POINT('',#568);
#253=VERTEX_POINT('',#570);
#254=VERTEX_POINT('',#579);
#255=VERTEX_POINT('',#582);
#256=VERTEX_POINT('',#586);
#257=VERTEX_POINT('',#587);
#258=VERTEX_POINT('',#589);
#259=VERTEX_POINT('',#591);
#260=VERTEX_POINT('',#595);
#261=VERTEX_POINT('',#597);
#262=VERTEX_POINT('',#601);
#263=VERTEX_POINT('',#605);
#264=EDGE_CURVE('',#237,#238,#302,.T.);
#265=EDGE_CURVE('',#238,#239,#150,.T.);
#266=EDGE_CURVE('',#239,#240,#303,.T.);
#267=EDGE_CURVE('',#237,#240,#304,.T.);
#268=EDGE_CURVE('',#241,#242,#69,.T.);
#269=EDGE_CURVE('',#243,#241,#305,.T.);
#270=EDGE_CURVE('',#243,#244,#151,.T.);
#271=EDGE_CURVE('',#244,#245,#152,.T.);
#272=EDGE_CURVE('',#245,#242,#306,.T.);
#273=EDGE_CURVE('',#246,#247,#307,.T.);
#274=EDGE_CURVE('',#246,#248,#153,.T.);
#275=EDGE_CURVE('',#248,#249,#308,.T.);
#276=EDGE_CURVE('',#247,#249,#60,.T.);
#277=EDGE_CURVE('',#243,#239,#70,.T.);
#278=EDGE_CURVE('',#245,#238,#71,.T.);
#279=EDGE_CURVE('',#247,#249,#309,.T.);
#280=EDGE_CURVE('',#250,#250,#154,.T.);
#281=EDGE_CURVE('',#246,#248,#310,.T.);
#282=EDGE_CURVE('',#251,#251,#155,.T.);
#283=EDGE_CURVE('',#252,#240,#311,.T.);
#284=EDGE_CURVE('',#253,#252,#156,.T.);
#285=EDGE_CURVE('',#237,#253,#312,.T.);
#286=EDGE_CURVE('',#241,#252,#313,.T.);
#287=EDGE_CURVE('',#242,#253,#314,.T.);
#288=EDGE_CURVE('',#254,#254,#157,.T.);
#289=EDGE_CURVE('',#255,#255,#158,.T.);
#290=EDGE_CURVE('',#256,#257,#315,.T.);
#291=EDGE_CURVE('',#258,#256,#316,.T.);
#292=EDGE_CURVE('',#259,#258,#317,.T.);
#293=EDGE_CURVE('',#257,#259,#159,.T.);
#294=EDGE_CURVE('',#257,#260,#318,.T.);
#295=EDGE_CURVE('',#261,#260,#319,.T.);
#296=EDGE_CURVE('',#256,#261,#320,.T.);
#297=EDGE_CURVE('',#262,#261,#321,.T.);
#298=EDGE_CURVE('',#258,#262,#322,.T.);
#299=EDGE_CURVE('',#263,#262,#323,.T.);
#300=EDGE_CURVE('',#259,#263,#324,.T.);
#301=EDGE_CURVE('',#260,#263,#160,.T.);
#302=LINE('',#510,#325);
#303=LINE('',#515,#326);
#304=LINE('',#517,#327);
#305=LINE('',#531,#328);
#306=LINE('',#537,#329);
#307=LINE('',#538,#330);
#308=LINE('',#543,#331);
#309=LINE('',#556,#332);
#310=LINE('',#560,#333);
#311=LINE('',#567,#334);
#312=LINE('',#571,#335);
#313=LINE('',#573,#336);
#314=LINE('',#575,#337);
#315=LINE('',#585,#338);
#316=LINE('',#588,#339);
#317=LINE('',#590,#340);
#318=LINE('',#594,#341);
#319=LINE('',#596,#342);
#320=LINE('',#598,#343);
#321=LINE('',#600,#344);
#322=LINE('',#602,#345);
#323=LINE('',#604,#346);
#324=LINE('',#606,#347);
#325=VECTOR('',#417,1.);
#326=VECTOR('',#420,1.);
#327=VECTOR('',#421,1.);
#328=VECTOR('',#424,1.);
#329=VECTOR('',#429,1.);
#330=VECTOR('',#430,1.);
#331=VECTOR('',#433,1.);
#332=VECTOR('',#440,1.);
#333=VECTOR('',#445,1.);
#334=VECTOR('',#456,1.);
#335=VECTOR('',#459,1.);
#336=VECTOR('',#462,1.);
#337=VECTOR('',#465,1.);
#338=VECTOR('',#480,1.);
#339=VECTOR('',#481,1.);
#340=VECTOR('',#482,1.);
#341=VECTOR('',#487,1.);
#342=VECTOR('',#488,1.);
#343=VECTOR('',#489,1.);
#344=VECTOR('',#492,1.);
#345=VECTOR('',#493,1.);
#346=VECTOR('',#496,1.);
#347=VECTOR('',#497,1.);
#348=PRESENTATION_LAYER_ASSIGNMENT('1','Layer 1',(#373,#374,#375,#49));
#349=PRESENTATION_LAYER_ASSIGNMENT('2','Layer 2',(#48));
#350=PRESENTATION_LAYER_ASSIGNMENT('4','Layer 4',(#50));
#351=STYLED_ITEM('',(#357),#373);
#352=STYLED_ITEM('',(#358),#374);
#353=STYLED_ITEM('',(#359),#375);
#354=STYLED_ITEM('',(#360),#48);
#355=STYLED_ITEM('',(#361),#49);
#356=STYLED_ITEM('',(#362),#50);
#357=PRESENTATION_STYLE_ASSIGNMENT((#363));
#358=PRESENTATION_STYLE_ASSIGNMENT((#364));
#359=PRESENTATION_STYLE_ASSIGNMENT((#365));
#360=PRESENTATION_STYLE_ASSIGNMENT((#33));
#361=PRESENTATION_STYLE_ASSIGNMENT((#34));
#362=PRESENTATION_STYLE_ASSIGNMENT((#35));
#363=CURVE_STYLE('',#369,POSITIVE_LENGTH_MEASURE(0.18),#366);
#364=CURVE_STYLE('',#370,POSITIVE_LENGTH_MEASURE(0.18),#366);
#365=CURVE_STYLE('',#371,POSITIVE_LENGTH_MEASURE(0.18),#366);
#366=COLOUR_RGB('Strong Stone',0.576470588235294,0.54508278019379,0.392156862745098);
#367=COLOUR_RGB('Medium Gray',0.490196078431373,0.490196078431373,0.490196078431373);
#368=COLOUR_RGB('Iron Gray',0.298023956664378,0.298023956664378,0.298023956664378);
#369=DRAUGHTING_PRE_DEFINED_CURVE_FONT('continuous');
#370=DRAUGHTING_PRE_DEFINED_CURVE_FONT('continuous');
#371=DRAUGHTING_PRE_DEFINED_CURVE_FONT('continuous');
#372=AXIS2_PLACEMENT_3D('',#506,#409,#410);
#373=AXIS2_PLACEMENT_3D('MCS',#507,#411,#412);
#374=AXIS2_PLACEMENT_3D('PCS',#508,#413,#414);
#375=AXIS2_PLACEMENT_3D('CSW',#509,#415,#416);
#376=AXIS2_PLACEMENT_3D('',#513,#418,#419);
#377=AXIS2_PLACEMENT_3D('',#518,#422,#423);
#378=AXIS2_PLACEMENT_3D('',#533,#425,#426);
#379=AXIS2_PLACEMENT_3D('',#535,#427,#428);
#380=AXIS2_PLACEMENT_3D('',#541,#431,#432);
#381=AXIS2_PLACEMENT_3D('',#545,#434,#435);
#382=AXIS2_PLACEMENT_3D('',#546,#436,#437);
#383=AXIS2_PLACEMENT_3D('',#555,#438,#439);
#384=AXIS2_PLACEMENT_3D('',#557,#441,#442);
#385=AXIS2_PLACEMENT_3D('',#558,#443,#444);
#386=AXIS2_PLACEMENT_3D('',#561,#446,#447);
#387=AXIS2_PLACEMENT_3D('',#562,#448,#449);
#388=AXIS2_PLACEMENT_3D('',#563,#450,#451);
#389=AXIS2_PLACEMENT_3D('',#565,#452,#453);
#390=AXIS2_PLACEMENT_3D('',#566,#454,#455);
#391=AXIS2_PLACEMENT_3D('',#569,#457,#458);
#392=AXIS2_PLACEMENT_3D('',#572,#460,#461);
#393=AXIS2_PLACEMENT_3D('',#574,#463,#464);
#394=AXIS2_PLACEMENT_3D('',#576,#466,#467);
#395=AXIS2_PLACEMENT_3D('',#577,#468,#469);
#396=AXIS2_PLACEMENT_3D('',#578,#470,#471);
#397=AXIS2_PLACEMENT_3D('',#580,#472,#473);
#398=AXIS2_PLACEMENT_3D('',#581,#474,#475);
#399=AXIS2_PLACEMENT_3D('',#583,#476,#477);
#400=AXIS2_PLACEMENT_3D('',#584,#478,#479);
#401=AXIS2_PLACEMENT_3D('',#592,#483,#484);
#402=AXIS2_PLACEMENT_3D('',#593,#485,#486);
#403=AXIS2_PLACEMENT_3D('',#599,#490,#491);
#404=AXIS2_PLACEMENT_3D('',#603,#494,#495);
#405=AXIS2_PLACEMENT_3D('',#607,#498,#499);
#406=AXIS2_PLACEMENT_3D('',#608,#500,#501);
#407=AXIS2_PLACEMENT_3D('',#609,#502,#503);
#408=AXIS2_PLACEMENT_3D('',#610,#504,#505);
#409=DIRECTION('',(0.,0.,1.));
#410=DIRECTION('',(1.,0.,0.));
#411=DIRECTION('',(0.,0.,1.));
#412=DIRECTION('',(1.,0.,0.));
#413=DIRECTION('',(0.,0.,1.));
#414=DIRECTION('',(1.,0.,0.));
#415=DIRECTION('',(0.,0.,1.));
#416=DIRECTION('',(1.17145536458252E-15,1.,0.));
#417=DIRECTION('',(-1.,0.,0.));
#418=DIRECTION('',(0.,0.,1.));
#419=DIRECTION('',(0.,-1.,0.));
#420=DIRECTION('',(1.,0.,0.));
#421=DIRECTION('',(0.,1.,0.));
#422=DIRECTION('',(0.,0.,-1.));
#423=DIRECTION('',(-1.,0.,0.));
#424=DIRECTION('',(0.,0.,-1.));
#425=DIRECTION('',(0.,0.,-1.));
#426=DIRECTION('',(1.,0.,0.));
#427=DIRECTION('',(0.,0.,-1.));
#428=DIRECTION('',(1.,0.,0.));
#429=DIRECTION('',(0.,0.,-1.));
#430=DIRECTION('',(5.533639650821E-10,2.257291567136E-10,1.));
#431=DIRECTION('',(0.,0.,1.));
#432=DIRECTION('',(0.,-1.,0.));
#433=DIRECTION('',(6.970956504159E-10,-2.843604303664E-10,1.));
#434=DIRECTION('',(0.707106781186547,0.,-0.707106781186547));
#435=DIRECTION('',(-0.707106781186547,0.,-0.707106781186547));
#436=DIRECTION('',(0.,0.,-1.));
#437=DIRECTION('',(1.,0.,0.));
#438=DIRECTION('',(0.,0.,-1.));
#439=DIRECTION('',(1.,0.,1.04353798968892E-16));
#440=DIRECTION('',(0.,-1.,0.));
#441=DIRECTION('',(-0.707106781186547,0.,0.707106781186547));
#442=DIRECTION('',(-0.707106781186547,0.,-0.707106781186547));
#443=DIRECTION('',(0.,0.,-1.));
#444=DIRECTION('',(0.,-1.,0.));
#445=DIRECTION('',(0.,-1.,0.));
#446=DIRECTION('',(0.,0.,-1.));
#447=DIRECTION('',(-1.,0.,0.));
#448=DIRECTION('',(-1.,0.,0.));
#449=DIRECTION('',(0.,0.,-1.));
#450=DIRECTION('',(0.,0.,-1.));
#451=DIRECTION('',(0.,-1.,0.));
#452=DIRECTION('',(0.,0.,-1.));
#453=DIRECTION('',(0.,1.,0.));
#454=DIRECTION('',(0.,0.,-1.));
#455=DIRECTION('',(0.,1.,0.));
#456=DIRECTION('',(0.,0.,1.));
#457=DIRECTION('',(1.,0.,0.));
#458=DIRECTION('',(0.,1.,0.));
#459=DIRECTION('',(0.,0.,-1.));
#460=DIRECTION('',(-1.,0.,0.));
#461=DIRECTION('',(0.,0.,1.));
#462=DIRECTION('',(1.,0.,0.));
#463=DIRECTION('',(0.,1.,0.));
#464=DIRECTION('',(0.,0.,1.));
#465=DIRECTION('',(1.,0.,0.));
#466=DIRECTION('',(0.,-1.,0.));
#467=DIRECTION('',(0.,0.,-1.));
#468=DIRECTION('',(-1.,0.,0.));
#469=DIRECTION('',(0.,0.,1.));
#470=DIRECTION('',(0.,0.,-1.));
#471=DIRECTION('',(0.,-1.,0.));
#472=DIRECTION('',(0.,0.,-1.));
#473=DIRECTION('',(-1.,0.,0.));
#474=DIRECTION('',(0.,0.,-1.));
#475=DIRECTION('',(1.,0.,0.));
#476=DIRECTION('',(0.,0.,-1.));
#477=DIRECTION('',(-1.,0.,0.));
#478=DIRECTION('',(0.,0.,1.));
#479=DIRECTION('',(1.,0.,0.));
#480=DIRECTION('',(0.,0.,-1.));
#481=DIRECTION('',(0.,1.,0.));
#482=DIRECTION('',(0.,0.,1.));
#483=DIRECTION('',(-1.,0.,0.));
#484=DIRECTION('',(0.,1.,0.));
#485=DIRECTION('',(-1.,0.,0.));
#486=DIRECTION('',(0.,0.,1.));
#487=DIRECTION('',(-1.,0.,0.));
#488=DIRECTION('',(0.,0.,-1.));
#489=DIRECTION('',(-1.,0.,0.));
#490=DIRECTION('',(0.,1.,0.));
#491=DIRECTION('',(0.,0.,1.));
#492=DIRECTION('',(0.,1.,0.));
#493=DIRECTION('',(-1.,0.,0.));
#494=DIRECTION('',(0.,0.,1.));
#495=DIRECTION('',(0.,-1.,0.));
#496=DIRECTION('',(0.,0.,1.));
#497=DIRECTION('',(-1.,0.,0.));
#498=DIRECTION('',(0.,-1.,0.));
#499=DIRECTION('',(0.,0.,-1.));
#500=DIRECTION('',(-1.,0.,0.));
#501=DIRECTION('',(0.,1.,0.));
#502=DIRECTION('',(-1.,0.,0.));
#503=DIRECTION('',(0.,0.,1.));
#504=DIRECTION('',(-1.,0.,0.));
#505=DIRECTION('',(0.,0.,1.));
#506=CARTESIAN_POINT('',(0.,0.,0.));
#507=CARTESIAN_POINT('',(0.,0.,0.));
#508=CARTESIAN_POINT('',(0.,0.,0.));
#509=CARTESIAN_POINT('',(0.,0.,-65.));
#510=CARTESIAN_POINT('',(0.,-6.,0.));
#511=CARTESIAN_POINT('',(-14.5,-6.,0.));
#512=CARTESIAN_POINT('',(-24.7840674627875,-6.,0.));
#513=CARTESIAN_POINT('',(0.,0.,0.));
#514=CARTESIAN_POINT('',(-24.7840674627875,6.,0.));
#515=CARTESIAN_POINT('',(0.,6.,0.));
#516=CARTESIAN_POINT('',(-14.5,6.,0.));
#517=CARTESIAN_POINT('',(-14.5,0.,0.));
#518=CARTESIAN_POINT('',(0.,0.,0.));
#519=CARTESIAN_POINT('',(-26.3248931621764,6.,-11.5));
#520=CARTESIAN_POINT('',(-26.3248931621764,6.,-13.0906540740213));
#521=CARTESIAN_POINT('',(-26.4890908349886,5.34559346600821,-14.639687988054));
#522=CARTESIAN_POINT('',(-26.8400757177603,3.13968760117904,-16.8455936932359));
#523=CARTESIAN_POINT('',(-26.9997049692696,1.57550801066031,-17.4986723612643));
#524=CARTESIAN_POINT('',(-27.0002940808824,-1.56537965526862,-17.501323364419));
#525=CARTESIAN_POINT('',(-26.8421014417642,-3.12640817114694,-16.8578050264911));
#526=CARTESIAN_POINT('',(-26.4877119470619,-5.354806595205,-14.6315410076281));
#527=CARTESIAN_POINT('',(-26.3248931621764,-6.,-13.0906752141968));
#528=CARTESIAN_POINT('',(-26.3248931621764,-6.,-11.5));
#529=CARTESIAN_POINT('',(-26.3248931621764,6.,-11.5));
#530=CARTESIAN_POINT('',(-26.3248931621764,-6.,-11.5));
#531=CARTESIAN_POINT('',(-26.3248931621764,6.,1.));
#532=CARTESIAN_POINT('',(-26.3248931621764,6.,-1.5));
#533=CARTESIAN_POINT('',(0.,0.,-1.5));
#534=CARTESIAN_POINT('',(27.,0.,-1.5));
#535=CARTESIAN_POINT('',(0.,0.,-1.5));
#536=CARTESIAN_POINT('',(-26.3248931621764,-6.,-1.5));
#537=CARTESIAN_POINT('',(-26.3248931621764,-6.,-5.75));
#538=CARTESIAN_POINT('',(25.,10.19803902719,-36.5));
#539=CARTESIAN_POINT('',(25.,10.1980390271856,-65.));
#540=CARTESIAN_POINT('',(25.,10.1980390271878,-36.5));
#541=CARTESIAN_POINT('',(0.,0.,-65.));
#542=CARTESIAN_POINT('',(25.,-10.1980390271856,-65.));
#543=CARTESIAN_POINT('',(25.,-10.19803902719,-36.5));
#544=CARTESIAN_POINT('',(25.,-10.1980390271878,-36.5));
#545=CARTESIAN_POINT('',(0.,0.,-61.5));
#546=CARTESIAN_POINT('',(0.,0.,1.));
#547=CARTESIAN_POINT('',(-26.3248931621764,6.,-1.5));
#548=CARTESIAN_POINT('',(-25.8116674825311,6.,-0.999606993157545));
#549=CARTESIAN_POINT('',(-25.2980817329624,6.,-0.499582915641263));
#550=CARTESIAN_POINT('',(-24.7840674627875,6.,0.));
#551=CARTESIAN_POINT('',(-26.3248931621764,-6.,-1.5));
#552=CARTESIAN_POINT('',(-25.8116674825311,-6.,-0.999606993157548));
#553=CARTESIAN_POINT('',(-25.2980817329624,-6.,-0.499582915641263));
#554=CARTESIAN_POINT('',(-24.7840674627875,-6.,0.));
#555=CARTESIAN_POINT('',(0.,0.,-0.999999999999997));
#556=CARTESIAN_POINT('',(25.,10.19803902719,-36.5));
#557=CARTESIAN_POINT('',(25.,32.4,-36.5));
#558=CARTESIAN_POINT('',(0.,0.,-65.));
#559=CARTESIAN_POINT('',(0.,-8.,-65.));
#560=CARTESIAN_POINT('',(25.,32.4,-65.));
#561=CARTESIAN_POINT('',(0.,0.,-65.));
#562=CARTESIAN_POINT('',(25.,32.4,-65.));
#563=CARTESIAN_POINT('',(0.,0.,-35.));
#564=CARTESIAN_POINT('',(0.,-8.,-35.));
#565=CARTESIAN_POINT('',(0.,0.,-35.));
#566=CARTESIAN_POINT('',(0.,0.,-35.));
#567=CARTESIAN_POINT('',(-14.5,6.,5.5));
#568=CARTESIAN_POINT('',(-14.5,6.,-11.5));
#569=CARTESIAN_POINT('',(-14.5,0.,-11.5));
#570=CARTESIAN_POINT('',(-14.5,-6.,-11.5));
#571=CARTESIAN_POINT('',(-14.5,-6.,-11.5));
#572=CARTESIAN_POINT('',(-14.5,0.,-9.));
#573=CARTESIAN_POINT('',(-14.5,6.,-11.5));
#574=CARTESIAN_POINT('',(-14.5,6.,6.3));
#575=CARTESIAN_POINT('',(-14.5,-6.,-11.5));
#576=CARTESIAN_POINT('',(-14.5,-6.,-11.5));
#577=CARTESIAN_POINT('',(-14.5,0.,-11.5));
#578=CARTESIAN_POINT('',(0.,0.,30.));
#579=CARTESIAN_POINT('',(0.,-14.,30.));
#580=CARTESIAN_POINT('',(0.,0.,30.));
#581=CARTESIAN_POINT('',(0.,0.,0.));
#582=CARTESIAN_POINT('',(14.,0.,0.));
#583=CARTESIAN_POINT('',(0.,0.,32.5));
#584=CARTESIAN_POINT('',(0.,0.,0.));
#585=CARTESIAN_POINT('',(-14.5,6.,5.5));
#586=CARTESIAN_POINT('',(-14.5,6.,6.3));
#587=CARTESIAN_POINT('',(-14.5,6.,-11.5));
#588=CARTESIAN_POINT('',(-14.5,-5.2,6.3));
#589=CARTESIAN_POINT('',(-14.5,-6.,6.3));
#590=CARTESIAN_POINT('',(-14.5,-6.,-11.5));
#591=CARTESIAN_POINT('',(-14.5,-6.,-11.5));
#592=CARTESIAN_POINT('',(-14.5,0.,-11.5));
#593=CARTESIAN_POINT('',(-14.5,0.,-9.));
#594=CARTESIAN_POINT('',(-14.5,6.,-11.5));
#595=CARTESIAN_POINT('',(-23.5,6.,-11.5));
#596=CARTESIAN_POINT('',(-23.5,6.,5.5));
#597=CARTESIAN_POINT('',(-23.5,6.,6.3));
#598=CARTESIAN_POINT('',(-14.5,6.,6.3));
#599=CARTESIAN_POINT('',(-14.5,6.,6.3));
#600=CARTESIAN_POINT('',(-23.5,-5.2,6.3));
#601=CARTESIAN_POINT('',(-23.5,-6.,6.3));
#602=CARTESIAN_POINT('',(-14.5,-6.,6.3));
#603=CARTESIAN_POINT('',(-14.5,-6.,6.3));
#604=CARTESIAN_POINT('',(-23.5,-6.,-11.5));
#605=CARTESIAN_POINT('',(-23.5,-6.,-11.5));
#606=CARTESIAN_POINT('',(-14.5,-6.,-11.5));
#607=CARTESIAN_POINT('',(-14.5,-6.,-11.5));
#608=CARTESIAN_POINT('',(-23.5,0.,-11.5));
#609=CARTESIAN_POINT('',(-14.5,0.,-11.5));
#610=CARTESIAN_POINT('',(-23.5,0.,-9.));
#611=MECHANICAL_DESIGN_GEOMETRIC_PRESENTATION_REPRESENTATION('',(#351,#352,
#353,#354,#355,#356),#612);
#612=(
GEOMETRIC_REPRESENTATION_CONTEXT(3)
GLOBAL_UNCERTAINTY_ASSIGNED_CONTEXT((#613))
GLOBAL_UNIT_ASSIGNED_CONTEXT((#619,#615,#614))
REPRESENTATION_CONTEXT('A76013','TOP_LEVEL_ASSEMBLY_PART')
);
#613=UNCERTAINTY_MEASURE_WITH_UNIT(LENGTH_MEASURE(0.0508),#619,
'DISTANCE_ACCURACY_VALUE','Maximum Tolerance applied to model');
#614=(
NAMED_UNIT(*)
SI_UNIT($,.STERADIAN.)
SOLID_ANGLE_UNIT()
);
#615=(
CONVERSION_BASED_UNIT('DEGREE',#617)
NAMED_UNIT(#616)
PLANE_ANGLE_UNIT()
);
#616=DIMENSIONAL_EXPONENTS(0.,0.,0.,0.,0.,0.,0.);
#617=PLANE_ANGLE_MEASURE_WITH_UNIT(PLANE_ANGLE_MEASURE(0.0174532925),#618);
#618=(
NAMED_UNIT(*)
PLANE_ANGLE_UNIT()
SI_UNIT($,.RADIAN.)
);
#619=(
LENGTH_UNIT()
NAMED_UNIT(*)
SI_UNIT(.MILLI.,.METRE.)
);
ENDSEC;
END-ISO-10303-21;
