ISO-10303-21;
HEADER;
/* Generated by software containing ST-Developer
 * from STEP Tools, Inc. (www.steptools.com) 
 */
/* OPTION: using custom schema-name function */

FILE_DESCRIPTION(
/* description */ (''),
/* implementation_level */ '2;1');

FILE_NAME(
/* name */ 'A76012.stp',
/* time_stamp */ '2017-10-27T11:34:31+05:00',
/* author */ (''),
/* organization */ (''),
/* preprocessor_version */ 'ST-DEVELOPER v16',
/* originating_system */ 'SIEMENS PLM Software NX 11.0',
/* authorisation */ '');

FILE_SCHEMA (('AUTOMOTIVE_DESIGN { 1 0 10303 214 3 1 1 1 }'));
ENDSEC;

DATA;
#10=CONSTRUCTIVE_GEOMETRY_REPRESENTATION_RELATIONSHIP(
'supplemental geometry','',#32,#11);
#11=CONSTRUCTIVE_GEOMETRY_REPRESENTATION('supplemental geometry',(#360,
#361,#362),#581);
#12=PROPERTY_DEFINITION_REPRESENTATION(#16,#14);
#13=PROPERTY_DEFINITION_REPRESENTATION(#17,#15);
#14=REPRESENTATION('',(#18),#581);
#15=REPRESENTATION('',(#19),#581);
#16=PROPERTY_DEFINITION('pmi validation property','',#23);
#17=PROPERTY_DEFINITION('pmi validation property','',#23);
#18=VALUE_REPRESENTATION_ITEM('number of annotations',COUNT_MEASURE(0.));
#19=VALUE_REPRESENTATION_ITEM('number of views',COUNT_MEASURE(0.));
#20=SHAPE_REPRESENTATION_RELATIONSHIP('None',
'relationship between A76012-None and A76012-None',#32,#21);
#21=ADVANCED_BREP_SHAPE_REPRESENTATION('A76012-None',(#67,#68,#69),#581);
#22=SHAPE_DEFINITION_REPRESENTATION(#23,#32);
#23=PRODUCT_DEFINITION_SHAPE('','',#24);
#24=PRODUCT_DEFINITION(' ','',#26,#25);
#25=PRODUCT_DEFINITION_CONTEXT('part definition',#31,'design');
#26=PRODUCT_DEFINITION_FORMATION_WITH_SPECIFIED_SOURCE(' ',' ',#28,
 .NOT_KNOWN.);
#27=PRODUCT_RELATED_PRODUCT_CATEGORY('part','',(#28));
#28=PRODUCT('A76012','A76012',' ',(#29));
#29=PRODUCT_CONTEXT(' ',#31,'mechanical');
#30=APPLICATION_PROTOCOL_DEFINITION('international standard',
'automotive_design',2010,#31);
#31=APPLICATION_CONTEXT(
'core data for automotive mechanical design processes');
#32=SHAPE_REPRESENTATION('A76012-None',(#359),#581);
#33=CONICAL_SURFACE('',#391,18.,45.);
#34=CONICAL_SURFACE('',#395,17.99999995653,44.99999985924);
#35=CONICAL_SURFACE('',#397,15.75,45.);
#36=FACE_BOUND('',#135,.T.);
#37=FACE_BOUND('',#136,.T.);
#38=FACE_BOUND('',#143,.T.);
#39=FACE_BOUND('',#144,.T.);
#40=FACE_BOUND('',#146,.T.);
#41=FACE_BOUND('',#147,.T.);
#42=FACE_BOUND('',#148,.T.);
#43=FACE_BOUND('',#149,.T.);
#44=FACE_BOUND('',#150,.T.);
#45=FACE_BOUND('',#151,.T.);
#46=FACE_BOUND('',#152,.T.);
#47=FACE_BOUND('',#153,.T.);
#48=FACE_BOUND('',#154,.T.);
#49=FACE_BOUND('',#155,.T.);
#50=FACE_BOUND('',#156,.T.);
#51=FACE_BOUND('',#157,.T.);
#52=SURFACE_STYLE_USAGE(.BOTH.,#55);
#53=SURFACE_STYLE_USAGE(.BOTH.,#56);
#54=SURFACE_STYLE_USAGE(.BOTH.,#57);
#55=SURFACE_SIDE_STYLE('',(#58));
#56=SURFACE_SIDE_STYLE('',(#59));
#57=SURFACE_SIDE_STYLE('',(#60));
#58=SURFACE_STYLE_FILL_AREA(#61);
#59=SURFACE_STYLE_FILL_AREA(#62);
#60=SURFACE_STYLE_FILL_AREA(#63);
#61=FILL_AREA_STYLE('',(#64));
#62=FILL_AREA_STYLE('',(#65));
#63=FILL_AREA_STYLE('',(#66));
#64=FILL_AREA_STYLE_COLOUR('',#354);
#65=FILL_AREA_STYLE_COLOUR('',#355);
#66=FILL_AREA_STYLE_COLOUR('',#355);
#67=MANIFOLD_SOLID_BREP('NOCUT',#70);
#68=MANIFOLD_SOLID_BREP('NOCUT',#71);
#69=MANIFOLD_SOLID_BREP('NOCUT',#72);
#70=CLOSED_SHELL('',(#77,#78,#79,#80,#81,#82));
#71=CLOSED_SHELL('',(#83,#84,#85,#86,#87,#88,#89));
#72=CLOSED_SHELL('',(#90,#91,#92,#93,#94,#95,#96,#97,#98));
#73=CYLINDRICAL_SURFACE('',#369,16.);
#74=CYLINDRICAL_SURFACE('',#375,9.);
#75=CYLINDRICAL_SURFACE('',#385,6.);
#76=CYLINDRICAL_SURFACE('',#393,18.25);
#77=ADVANCED_FACE('',(#114),#99,.F.);
#78=ADVANCED_FACE('',(#115),#100,.T.);
#79=ADVANCED_FACE('',(#116),#101,.T.);
#80=ADVANCED_FACE('',(#117),#102,.T.);
#81=ADVANCED_FACE('',(#118),#73,.T.);
#82=ADVANCED_FACE('',(#119),#103,.T.);
#83=ADVANCED_FACE('',(#120),#104,.F.);
#84=ADVANCED_FACE('',(#36,#37),#74,.T.);
#85=ADVANCED_FACE('',(#121),#105,.F.);
#86=ADVANCED_FACE('',(#122),#106,.F.);
#87=ADVANCED_FACE('',(#123),#107,.F.);
#88=ADVANCED_FACE('',(#124),#108,.F.);
#89=ADVANCED_FACE('',(#125),#109,.F.);
#90=ADVANCED_FACE('',(#126),#110,.F.);
#91=ADVANCED_FACE('',(#38,#39),#75,.F.);
#92=ADVANCED_FACE('',(#127),#111,.F.);
#93=ADVANCED_FACE('',(#40,#41),#112,.F.);
#94=ADVANCED_FACE('',(#42,#43),#33,.T.);
#95=ADVANCED_FACE('',(#44,#45),#76,.T.);
#96=ADVANCED_FACE('',(#46,#47),#34,.T.);
#97=ADVANCED_FACE('',(#48,#49),#113,.T.);
#98=ADVANCED_FACE('',(#50,#51),#35,.T.);
#99=PLANE('',#364);
#100=PLANE('',#366);
#101=PLANE('',#367);
#102=PLANE('',#368);
#103=PLANE('',#370);
#104=PLANE('',#372);
#105=PLANE('',#376);
#106=PLANE('',#377);
#107=PLANE('',#378);
#108=PLANE('',#379);
#109=PLANE('',#380);
#110=PLANE('',#382);
#111=PLANE('',#386);
#112=PLANE('',#389);
#113=PLANE('',#396);
#114=FACE_OUTER_BOUND('',#128,.T.);
#115=FACE_OUTER_BOUND('',#129,.T.);
#116=FACE_OUTER_BOUND('',#130,.T.);
#117=FACE_OUTER_BOUND('',#131,.T.);
#118=FACE_OUTER_BOUND('',#132,.T.);
#119=FACE_OUTER_BOUND('',#133,.T.);
#120=FACE_OUTER_BOUND('',#134,.T.);
#121=FACE_OUTER_BOUND('',#137,.T.);
#122=FACE_OUTER_BOUND('',#138,.T.);
#123=FACE_OUTER_BOUND('',#139,.T.);
#124=FACE_OUTER_BOUND('',#140,.T.);
#125=FACE_OUTER_BOUND('',#141,.T.);
#126=FACE_OUTER_BOUND('',#142,.T.);
#127=FACE_OUTER_BOUND('',#145,.T.);
#128=EDGE_LOOP('',(#198,#199,#200,#201));
#129=EDGE_LOOP('',(#202,#203,#204,#205));
#130=EDGE_LOOP('',(#206,#207,#208,#209));
#131=EDGE_LOOP('',(#210,#211,#212,#213));
#132=EDGE_LOOP('',(#214,#215,#216,#217));
#133=EDGE_LOOP('',(#218,#219,#220,#221));
#134=EDGE_LOOP('',(#222,#223,#224,#225));
#135=EDGE_LOOP('',(#226,#227,#228,#229));
#136=EDGE_LOOP('',(#230));
#137=EDGE_LOOP('',(#231));
#138=EDGE_LOOP('',(#232,#233,#234,#235));
#139=EDGE_LOOP('',(#236,#237,#238,#239));
#140=EDGE_LOOP('',(#240,#241,#242,#243));
#141=EDGE_LOOP('',(#244,#245,#246,#247));
#142=EDGE_LOOP('',(#248));
#143=EDGE_LOOP('',(#249));
#144=EDGE_LOOP('',(#250));
#145=EDGE_LOOP('',(#251));
#146=EDGE_LOOP('',(#252));
#147=EDGE_LOOP('',(#253));
#148=EDGE_LOOP('',(#254));
#149=EDGE_LOOP('',(#255));
#150=EDGE_LOOP('',(#256));
#151=EDGE_LOOP('',(#257));
#152=EDGE_LOOP('',(#258));
#153=EDGE_LOOP('',(#259));
#154=EDGE_LOOP('',(#260));
#155=EDGE_LOOP('',(#261));
#156=EDGE_LOOP('',(#262));
#157=EDGE_LOOP('',(#263));
#158=LINE('',#503,#178);
#159=LINE('',#505,#179);
#160=LINE('',#507,#180);
#161=LINE('',#509,#181);
#162=LINE('',#512,#182);
#163=LINE('',#516,#183);
#164=LINE('',#518,#184);
#165=LINE('',#519,#185);
#166=LINE('',#521,#186);
#167=LINE('',#523,#187);
#168=LINE('',#526,#188);
#169=LINE('',#531,#189);
#170=LINE('',#533,#190);
#171=LINE('',#535,#191);
#172=LINE('',#539,#192);
#173=LINE('',#544,#193);
#174=LINE('',#546,#194);
#175=LINE('',#548,#195);
#176=LINE('',#550,#196);
#177=LINE('',#551,#197);
#178=VECTOR('',#408,1.);
#179=VECTOR('',#409,1.);
#180=VECTOR('',#410,1.);
#181=VECTOR('',#413,1.);
#182=VECTOR('',#414,1.);
#183=VECTOR('',#417,1.);
#184=VECTOR('',#420,1.);
#185=VECTOR('',#421,1.);
#186=VECTOR('',#424,1.);
#187=VECTOR('',#427,1.);
#188=VECTOR('',#432,1.);
#189=VECTOR('',#435,1.);
#190=VECTOR('',#436,1.);
#191=VECTOR('',#439,1.);
#192=VECTOR('',#442,1.);
#193=VECTOR('',#449,1.);
#194=VECTOR('',#450,1.);
#195=VECTOR('',#451,1.);
#196=VECTOR('',#454,1.);
#197=VECTOR('',#455,1.);
#198=ORIENTED_EDGE('',*,*,#289,.T.);
#199=ORIENTED_EDGE('',*,*,#290,.T.);
#200=ORIENTED_EDGE('',*,*,#291,.T.);
#201=ORIENTED_EDGE('',*,*,#292,.T.);
#202=ORIENTED_EDGE('',*,*,#293,.T.);
#203=ORIENTED_EDGE('',*,*,#294,.T.);
#204=ORIENTED_EDGE('',*,*,#295,.T.);
#205=ORIENTED_EDGE('',*,*,#296,.F.);
#206=ORIENTED_EDGE('',*,*,#297,.F.);
#207=ORIENTED_EDGE('',*,*,#293,.F.);
#208=ORIENTED_EDGE('',*,*,#298,.T.);
#209=ORIENTED_EDGE('',*,*,#291,.F.);
#210=ORIENTED_EDGE('',*,*,#290,.F.);
#211=ORIENTED_EDGE('',*,*,#299,.T.);
#212=ORIENTED_EDGE('',*,*,#294,.F.);
#213=ORIENTED_EDGE('',*,*,#297,.T.);
#214=ORIENTED_EDGE('',*,*,#295,.F.);
#215=ORIENTED_EDGE('',*,*,#299,.F.);
#216=ORIENTED_EDGE('',*,*,#289,.F.);
#217=ORIENTED_EDGE('',*,*,#300,.F.);
#218=ORIENTED_EDGE('',*,*,#298,.F.);
#219=ORIENTED_EDGE('',*,*,#296,.T.);
#220=ORIENTED_EDGE('',*,*,#300,.T.);
#221=ORIENTED_EDGE('',*,*,#292,.F.);
#222=ORIENTED_EDGE('',*,*,#301,.F.);
#223=ORIENTED_EDGE('',*,*,#302,.T.);
#224=ORIENTED_EDGE('',*,*,#303,.F.);
#225=ORIENTED_EDGE('',*,*,#304,.F.);
#226=ORIENTED_EDGE('',*,*,#305,.F.);
#227=ORIENTED_EDGE('',*,*,#306,.F.);
#228=ORIENTED_EDGE('',*,*,#307,.F.);
#229=ORIENTED_EDGE('',*,*,#302,.F.);
#230=ORIENTED_EDGE('',*,*,#308,.F.);
#231=ORIENTED_EDGE('',*,*,#308,.T.);
#232=ORIENTED_EDGE('',*,*,#306,.T.);
#233=ORIENTED_EDGE('',*,*,#309,.T.);
#234=ORIENTED_EDGE('',*,*,#310,.T.);
#235=ORIENTED_EDGE('',*,*,#311,.F.);
#236=ORIENTED_EDGE('',*,*,#312,.F.);
#237=ORIENTED_EDGE('',*,*,#304,.T.);
#238=ORIENTED_EDGE('',*,*,#313,.T.);
#239=ORIENTED_EDGE('',*,*,#310,.F.);
#240=ORIENTED_EDGE('',*,*,#305,.T.);
#241=ORIENTED_EDGE('',*,*,#301,.T.);
#242=ORIENTED_EDGE('',*,*,#312,.T.);
#243=ORIENTED_EDGE('',*,*,#309,.F.);
#244=ORIENTED_EDGE('',*,*,#307,.T.);
#245=ORIENTED_EDGE('',*,*,#311,.T.);
#246=ORIENTED_EDGE('',*,*,#313,.F.);
#247=ORIENTED_EDGE('',*,*,#303,.T.);
#248=ORIENTED_EDGE('',*,*,#314,.T.);
#249=ORIENTED_EDGE('',*,*,#315,.T.);
#250=ORIENTED_EDGE('',*,*,#316,.F.);
#251=ORIENTED_EDGE('',*,*,#316,.T.);
#252=ORIENTED_EDGE('',*,*,#317,.F.);
#253=ORIENTED_EDGE('',*,*,#318,.T.);
#254=ORIENTED_EDGE('',*,*,#319,.F.);
#255=ORIENTED_EDGE('',*,*,#318,.F.);
#256=ORIENTED_EDGE('',*,*,#320,.T.);
#257=ORIENTED_EDGE('',*,*,#319,.T.);
#258=ORIENTED_EDGE('',*,*,#320,.F.);
#259=ORIENTED_EDGE('',*,*,#321,.F.);
#260=ORIENTED_EDGE('',*,*,#321,.T.);
#261=ORIENTED_EDGE('',*,*,#315,.F.);
#262=ORIENTED_EDGE('',*,*,#317,.T.);
#263=ORIENTED_EDGE('',*,*,#314,.F.);
#264=VERTEX_POINT('',#501);
#265=VERTEX_POINT('',#502);
#266=VERTEX_POINT('',#504);
#267=VERTEX_POINT('',#506);
#268=VERTEX_POINT('',#510);
#269=VERTEX_POINT('',#511);
#270=VERTEX_POINT('',#513);
#271=VERTEX_POINT('',#515);
#272=VERTEX_POINT('',#527);
#273=VERTEX_POINT('',#528);
#274=VERTEX_POINT('',#530);
#275=VERTEX_POINT('',#532);
#276=VERTEX_POINT('',#536);
#277=VERTEX_POINT('',#538);
#278=VERTEX_POINT('',#541);
#279=VERTEX_POINT('',#545);
#280=VERTEX_POINT('',#547);
#281=VERTEX_POINT('',#556);
#282=VERTEX_POINT('',#559);
#283=VERTEX_POINT('',#561);
#284=VERTEX_POINT('',#565);
#285=VERTEX_POINT('',#567);
#286=VERTEX_POINT('',#570);
#287=VERTEX_POINT('',#573);
#288=VERTEX_POINT('',#576);
#289=EDGE_CURVE('',#264,#265,#322,.T.);
#290=EDGE_CURVE('',#265,#266,#158,.T.);
#291=EDGE_CURVE('',#266,#267,#159,.T.);
#292=EDGE_CURVE('',#267,#264,#160,.T.);
#293=EDGE_CURVE('',#268,#269,#161,.T.);
#294=EDGE_CURVE('',#269,#270,#162,.T.);
#295=EDGE_CURVE('',#270,#271,#323,.T.);
#296=EDGE_CURVE('',#268,#271,#163,.T.);
#297=EDGE_CURVE('',#269,#266,#164,.T.);
#298=EDGE_CURVE('',#268,#267,#165,.T.);
#299=EDGE_CURVE('',#265,#270,#166,.T.);
#300=EDGE_CURVE('',#271,#264,#167,.T.);
#301=EDGE_CURVE('',#272,#273,#168,.T.);
#302=EDGE_CURVE('',#272,#274,#324,.T.);
#303=EDGE_CURVE('',#275,#274,#169,.T.);
#304=EDGE_CURVE('',#273,#275,#170,.T.);
#305=EDGE_CURVE('',#276,#272,#171,.T.);
#306=EDGE_CURVE('',#277,#276,#325,.T.);
#307=EDGE_CURVE('',#274,#277,#172,.T.);
#308=EDGE_CURVE('',#278,#278,#326,.T.);
#309=EDGE_CURVE('',#276,#279,#173,.T.);
#310=EDGE_CURVE('',#279,#280,#174,.T.);
#311=EDGE_CURVE('',#277,#280,#175,.T.);
#312=EDGE_CURVE('',#273,#279,#176,.T.);
#313=EDGE_CURVE('',#275,#280,#177,.T.);
#314=EDGE_CURVE('',#281,#281,#327,.T.);
#315=EDGE_CURVE('',#282,#282,#328,.T.);
#316=EDGE_CURVE('',#283,#283,#329,.T.);
#317=EDGE_CURVE('',#284,#284,#330,.T.);
#318=EDGE_CURVE('',#285,#285,#331,.T.);
#319=EDGE_CURVE('',#286,#286,#332,.T.);
#320=EDGE_CURVE('',#287,#287,#333,.T.);
#321=EDGE_CURVE('',#288,#288,#334,.T.);
#322=CIRCLE('',#363,16.);
#323=CIRCLE('',#365,16.);
#324=CIRCLE('',#371,9.);
#325=CIRCLE('',#373,9.);
#326=CIRCLE('',#374,9.);
#327=CIRCLE('',#381,15.5);
#328=CIRCLE('',#383,6.);
#329=CIRCLE('',#384,6.);
#330=CIRCLE('',#387,15.8);
#331=CIRCLE('',#388,17.75);
#332=CIRCLE('',#390,18.25);
#333=CIRCLE('',#392,18.25);
#334=CIRCLE('',#394,17.74999991279);
#335=PRESENTATION_LAYER_ASSIGNMENT('1','Layer 1',(#360,#361,#362,#68));
#336=PRESENTATION_LAYER_ASSIGNMENT('4','Layer 4',(#67));
#337=PRESENTATION_LAYER_ASSIGNMENT('2','Layer 2',(#69));
#338=STYLED_ITEM('',(#344),#360);
#339=STYLED_ITEM('',(#345),#361);
#340=STYLED_ITEM('',(#346),#362);
#341=STYLED_ITEM('',(#347),#67);
#342=STYLED_ITEM('',(#348),#68);
#343=STYLED_ITEM('',(#349),#69);
#344=PRESENTATION_STYLE_ASSIGNMENT((#350));
#345=PRESENTATION_STYLE_ASSIGNMENT((#351));
#346=PRESENTATION_STYLE_ASSIGNMENT((#352));
#347=PRESENTATION_STYLE_ASSIGNMENT((#52));
#348=PRESENTATION_STYLE_ASSIGNMENT((#53));
#349=PRESENTATION_STYLE_ASSIGNMENT((#54));
#350=CURVE_STYLE('',#356,POSITIVE_LENGTH_MEASURE(0.18),#353);
#351=CURVE_STYLE('',#357,POSITIVE_LENGTH_MEASURE(0.18),#353);
#352=CURVE_STYLE('',#358,POSITIVE_LENGTH_MEASURE(0.18),#353);
#353=COLOUR_RGB('Strong Stone',0.576470588235294,0.54508278019379,0.392156862745098);
#354=COLOUR_RGB('Iron Gray',0.298023956664378,0.298023956664378,0.298023956664378);
#355=COLOUR_RGB('Medium Gray',0.490196078431373,0.490196078431373,0.490196078431373);
#356=DRAUGHTING_PRE_DEFINED_CURVE_FONT('continuous');
#357=DRAUGHTING_PRE_DEFINED_CURVE_FONT('continuous');
#358=DRAUGHTING_PRE_DEFINED_CURVE_FONT('continuous');
#359=AXIS2_PLACEMENT_3D('',#496,#398,#399);
#360=AXIS2_PLACEMENT_3D('MCS',#497,#400,#401);
#361=AXIS2_PLACEMENT_3D('PCS',#498,#402,#403);
#362=AXIS2_PLACEMENT_3D('CSW',#499,#404,#405);
#363=AXIS2_PLACEMENT_3D('',#500,#406,#407);
#364=AXIS2_PLACEMENT_3D('',#508,#411,#412);
#365=AXIS2_PLACEMENT_3D('',#514,#415,#416);
#366=AXIS2_PLACEMENT_3D('',#517,#418,#419);
#367=AXIS2_PLACEMENT_3D('',#520,#422,#423);
#368=AXIS2_PLACEMENT_3D('',#522,#425,#426);
#369=AXIS2_PLACEMENT_3D('',#524,#428,#429);
#370=AXIS2_PLACEMENT_3D('',#525,#430,#431);
#371=AXIS2_PLACEMENT_3D('',#529,#433,#434);
#372=AXIS2_PLACEMENT_3D('',#534,#437,#438);
#373=AXIS2_PLACEMENT_3D('',#537,#440,#441);
#374=AXIS2_PLACEMENT_3D('',#540,#443,#444);
#375=AXIS2_PLACEMENT_3D('',#542,#445,#446);
#376=AXIS2_PLACEMENT_3D('',#543,#447,#448);
#377=AXIS2_PLACEMENT_3D('',#549,#452,#453);
#378=AXIS2_PLACEMENT_3D('',#552,#456,#457);
#379=AXIS2_PLACEMENT_3D('',#553,#458,#459);
#380=AXIS2_PLACEMENT_3D('',#554,#460,#461);
#381=AXIS2_PLACEMENT_3D('',#555,#462,#463);
#382=AXIS2_PLACEMENT_3D('',#557,#464,#465);
#383=AXIS2_PLACEMENT_3D('',#558,#466,#467);
#384=AXIS2_PLACEMENT_3D('',#560,#468,#469);
#385=AXIS2_PLACEMENT_3D('',#562,#470,#471);
#386=AXIS2_PLACEMENT_3D('',#563,#472,#473);
#387=AXIS2_PLACEMENT_3D('',#564,#474,#475);
#388=AXIS2_PLACEMENT_3D('',#566,#476,#477);
#389=AXIS2_PLACEMENT_3D('',#568,#478,#479);
#390=AXIS2_PLACEMENT_3D('',#569,#480,#481);
#391=AXIS2_PLACEMENT_3D('',#571,#482,#483);
#392=AXIS2_PLACEMENT_3D('',#572,#484,#485);
#393=AXIS2_PLACEMENT_3D('',#574,#486,#487);
#394=AXIS2_PLACEMENT_3D('',#575,#488,#489);
#395=AXIS2_PLACEMENT_3D('',#577,#490,#491);
#396=AXIS2_PLACEMENT_3D('',#578,#492,#493);
#397=AXIS2_PLACEMENT_3D('',#579,#494,#495);
#398=DIRECTION('',(0.,0.,1.));
#399=DIRECTION('',(1.,0.,0.));
#400=DIRECTION('',(0.,0.,1.));
#401=DIRECTION('',(1.,0.,0.));
#402=DIRECTION('',(0.,0.,1.));
#403=DIRECTION('',(1.,0.,0.));
#404=DIRECTION('',(0.,0.,1.));
#405=DIRECTION('',(1.17145536458252E-15,1.,0.));
#406=DIRECTION('',(0.,0.,-1.));
#407=DIRECTION('',(1.,0.,0.));
#408=DIRECTION('',(1.,0.,0.));
#409=DIRECTION('',(0.,-1.,0.));
#410=DIRECTION('',(-1.,0.,0.));
#411=DIRECTION('',(0.,0.,1.));
#412=DIRECTION('',(0.,1.,0.));
#413=DIRECTION('',(0.,1.,0.));
#414=DIRECTION('',(-1.,0.,0.));
#415=DIRECTION('',(0.,0.,1.));
#416=DIRECTION('',(1.,0.,0.));
#417=DIRECTION('',(-1.,0.,0.));
#418=DIRECTION('',(0.,0.,1.));
#419=DIRECTION('',(0.,1.,0.));
#420=DIRECTION('',(0.,0.,-1.));
#421=DIRECTION('',(0.,0.,-1.));
#422=DIRECTION('',(1.,0.,0.));
#423=DIRECTION('',(0.,1.,0.));
#424=DIRECTION('',(0.,0.,1.));
#425=DIRECTION('',(0.,1.,0.));
#426=DIRECTION('',(-1.,0.,0.));
#427=DIRECTION('',(0.,0.,-1.));
#428=DIRECTION('',(0.,0.,1.));
#429=DIRECTION('',(0.,1.,0.));
#430=DIRECTION('',(0.,-1.,0.));
#431=DIRECTION('',(1.,0.,0.));
#432=DIRECTION('',(1.,0.,0.));
#433=DIRECTION('',(0.,0.,-1.));
#434=DIRECTION('',(0.,-1.,0.));
#435=DIRECTION('',(-1.,0.,0.));
#436=DIRECTION('',(0.,-1.,0.));
#437=DIRECTION('',(0.,0.,1.));
#438=DIRECTION('',(0.,-1.,0.));
#439=DIRECTION('',(0.,0.,-1.));
#440=DIRECTION('',(0.,0.,-1.));
#441=DIRECTION('',(1.,0.,0.));
#442=DIRECTION('',(0.,0.,1.));
#443=DIRECTION('',(0.,0.,1.));
#444=DIRECTION('',(0.,-1.,0.));
#445=DIRECTION('',(0.,0.,-1.));
#446=DIRECTION('',(1.,0.,0.));
#447=DIRECTION('',(0.,0.,-1.));
#448=DIRECTION('',(1.,0.,0.));
#449=DIRECTION('',(1.,0.,0.));
#450=DIRECTION('',(0.,-1.,0.));
#451=DIRECTION('',(1.,0.,0.));
#452=DIRECTION('',(0.,0.,1.));
#453=DIRECTION('',(0.,1.,0.));
#454=DIRECTION('',(0.,0.,1.));
#455=DIRECTION('',(0.,0.,1.));
#456=DIRECTION('',(1.,0.,0.));
#457=DIRECTION('',(0.,1.,0.));
#458=DIRECTION('',(0.,1.,0.));
#459=DIRECTION('',(-1.,0.,0.));
#460=DIRECTION('',(0.,-1.,0.));
#461=DIRECTION('',(1.,0.,0.));
#462=DIRECTION('',(0.,0.,1.));
#463=DIRECTION('',(-1.,0.,0.));
#464=DIRECTION('',(0.,0.,-1.));
#465=DIRECTION('',(1.,0.,0.));
#466=DIRECTION('',(0.,0.,-1.));
#467=DIRECTION('',(0.,-1.,0.));
#468=DIRECTION('',(0.,0.,-1.));
#469=DIRECTION('',(0.,1.,0.));
#470=DIRECTION('',(0.,0.,1.));
#471=DIRECTION('',(-1.,0.,0.));
#472=DIRECTION('',(0.,0.,1.));
#473=DIRECTION('',(-1.,0.,0.));
#474=DIRECTION('',(0.,0.,1.));
#475=DIRECTION('',(0.,-1.,0.));
#476=DIRECTION('',(0.,0.,1.));
#477=DIRECTION('',(1.,0.,0.));
#478=DIRECTION('',(0.,0.,-1.));
#479=DIRECTION('',(-1.,0.,0.));
#480=DIRECTION('',(0.,0.,-1.));
#481=DIRECTION('',(1.,0.,0.));
#482=DIRECTION('',(0.,0.,-1.));
#483=DIRECTION('',(-1.,0.,-4.75004095214671E-17));
#484=DIRECTION('',(0.,0.,1.));
#485=DIRECTION('',(0.898630136986293,0.438707051345197,0.));
#486=DIRECTION('',(0.,0.,-1.));
#487=DIRECTION('',(1.,0.,0.));
#488=DIRECTION('',(0.,0.,-1.));
#489=DIRECTION('',(-0.354090216185099,-0.935211269608098,0.));
#490=DIRECTION('',(0.,0.,1.));
#491=DIRECTION('',(0.,-1.,-4.77134160745209E-17));
#492=DIRECTION('',(0.,0.,-1.));
#493=DIRECTION('',(1.,0.,0.));
#494=DIRECTION('',(0.,0.,-1.));
#495=DIRECTION('',(1.,0.,-8.21890891276238E-17));
#496=CARTESIAN_POINT('',(0.,0.,0.));
#497=CARTESIAN_POINT('',(0.,0.,0.));
#498=CARTESIAN_POINT('',(0.,0.,0.));
#499=CARTESIAN_POINT('',(0.,0.,-50.));
#500=CARTESIAN_POINT('',(-0.25,0.,0.));
#501=CARTESIAN_POINT('',(-15.7419333848297,-4.,0.));
#502=CARTESIAN_POINT('',(-15.7419333848297,4.,0.));
#503=CARTESIAN_POINT('',(-8.05,4.,0.));
#504=CARTESIAN_POINT('',(-8.05,4.,0.));
#505=CARTESIAN_POINT('',(-8.05,-4.,0.));
#506=CARTESIAN_POINT('',(-8.05,-4.,0.));
#507=CARTESIAN_POINT('',(-16.25,-4.,0.));
#508=CARTESIAN_POINT('',(-11.85,0.,0.));
#509=CARTESIAN_POINT('',(-8.05,0.,5.));
#510=CARTESIAN_POINT('',(-8.05,-4.,5.));
#511=CARTESIAN_POINT('',(-8.05,4.,5.));
#512=CARTESIAN_POINT('',(-8.05,4.,5.));
#513=CARTESIAN_POINT('',(-15.7419333848297,4.,5.));
#514=CARTESIAN_POINT('',(-0.25,0.,5.));
#515=CARTESIAN_POINT('',(-15.7419333848297,-4.,5.));
#516=CARTESIAN_POINT('',(-11.85,-4.,5.));
#517=CARTESIAN_POINT('',(-11.85,0.,5.));
#518=CARTESIAN_POINT('',(-8.05,4.,0.));
#519=CARTESIAN_POINT('',(-8.05,-4.,0.));
#520=CARTESIAN_POINT('',(-8.05,-4.,0.));
#521=CARTESIAN_POINT('',(-15.7419333848297,4.,2.28888414758284));
#522=CARTESIAN_POINT('',(-8.05,4.,0.));
#523=CARTESIAN_POINT('',(-15.7419333848297,-4.,2.28888416398353));
#524=CARTESIAN_POINT('',(-0.25,0.,5.));
#525=CARTESIAN_POINT('',(-16.25,-4.,0.));
#526=CARTESIAN_POINT('',(-8.05,4.,0.));
#527=CARTESIAN_POINT('',(-8.06225774829855,4.,0.));
#528=CARTESIAN_POINT('',(-8.05,4.,0.));
#529=CARTESIAN_POINT('',(0.,0.,0.));
#530=CARTESIAN_POINT('',(-8.06225774829855,-4.,0.));
#531=CARTESIAN_POINT('',(-16.25,-4.,0.));
#532=CARTESIAN_POINT('',(-8.05,-4.,0.));
#533=CARTESIAN_POINT('',(-8.05,-4.,0.));
#534=CARTESIAN_POINT('',(0.,0.,0.));
#535=CARTESIAN_POINT('',(-8.06225774829855,4.,21.7));
#536=CARTESIAN_POINT('',(-8.06225774829855,4.,5.));
#537=CARTESIAN_POINT('',(0.,0.,5.));
#538=CARTESIAN_POINT('',(-8.06225774829855,-4.,5.));
#539=CARTESIAN_POINT('',(-8.06225774829855,-4.,21.7));
#540=CARTESIAN_POINT('',(0.,0.,20.));
#541=CARTESIAN_POINT('',(0.,-9.,20.));
#542=CARTESIAN_POINT('',(0.,0.,21.7));
#543=CARTESIAN_POINT('',(0.,0.,20.));
#544=CARTESIAN_POINT('',(-8.05,4.,5.));
#545=CARTESIAN_POINT('',(-8.05,4.,5.));
#546=CARTESIAN_POINT('',(-8.05,0.,5.));
#547=CARTESIAN_POINT('',(-8.05,-4.,5.));
#548=CARTESIAN_POINT('',(-11.85,-4.,5.));
#549=CARTESIAN_POINT('',(-11.85,0.,5.));
#550=CARTESIAN_POINT('',(-8.05,4.,0.));
#551=CARTESIAN_POINT('',(-8.05,-4.,0.));
#552=CARTESIAN_POINT('',(-8.05,-4.,0.));
#553=CARTESIAN_POINT('',(-8.05,4.,0.));
#554=CARTESIAN_POINT('',(-16.25,-4.,0.));
#555=CARTESIAN_POINT('',(0.,0.,0.));
#556=CARTESIAN_POINT('',(-15.5,0.,0.));
#557=CARTESIAN_POINT('',(0.,0.,0.));
#558=CARTESIAN_POINT('',(0.,0.,-50.));
#559=CARTESIAN_POINT('',(0.,-6.,-50.));
#560=CARTESIAN_POINT('',(0.,0.,-30.));
#561=CARTESIAN_POINT('',(0.,6.,-30.));
#562=CARTESIAN_POINT('',(0.,0.,-47.875));
#563=CARTESIAN_POINT('',(0.,0.,-30.));
#564=CARTESIAN_POINT('',(0.,0.,-0.300000000000002));
#565=CARTESIAN_POINT('',(0.,-15.8,-0.300000000000002));
#566=CARTESIAN_POINT('',(0.,0.,-0.300000000000002));
#567=CARTESIAN_POINT('',(17.75,0.,-0.300000000000002));
#568=CARTESIAN_POINT('',(0.,0.,-0.300000000000002));
#569=CARTESIAN_POINT('',(0.,0.,-0.800000000000002));
#570=CARTESIAN_POINT('',(18.25,0.,-0.800000000000002));
#571=CARTESIAN_POINT('',(0.,0.,-0.550000000000002));
#572=CARTESIAN_POINT('',(7.283063041541E-14,2.620126338115E-14,-49.49999991033));
#573=CARTESIAN_POINT('',(16.3999999999999,8.00640368704987,-49.49999991033));
#574=CARTESIAN_POINT('',(0.,0.,-8.));
#575=CARTESIAN_POINT('',(7.283063041541E-14,2.620126338115E-14,-50.));
#576=CARTESIAN_POINT('',(-6.28510130640523,-16.5999999539839,-50.));
#577=CARTESIAN_POINT('',(7.283063041541E-14,2.620126338115E-14,-49.74999995502));
#578=CARTESIAN_POINT('',(0.,0.,-50.));
#579=CARTESIAN_POINT('',(0.,0.,-0.25));
#580=MECHANICAL_DESIGN_GEOMETRIC_PRESENTATION_REPRESENTATION('',(#338,#339,
#340,#341,#342,#343),#581);
#581=(
GEOMETRIC_REPRESENTATION_CONTEXT(3)
GLOBAL_UNCERTAINTY_ASSIGNED_CONTEXT((#582))
GLOBAL_UNIT_ASSIGNED_CONTEXT((#588,#584,#583))
REPRESENTATION_CONTEXT('A76012','TOP_LEVEL_ASSEMBLY_PART')
);
#582=UNCERTAINTY_MEASURE_WITH_UNIT(LENGTH_MEASURE(2.E-5),#588,
'DISTANCE_ACCURACY_VALUE','Maximum Tolerance applied to model');
#583=(
NAMED_UNIT(*)
SI_UNIT($,.STERADIAN.)
SOLID_ANGLE_UNIT()
);
#584=(
CONVERSION_BASED_UNIT('DEGREE',#586)
NAMED_UNIT(#585)
PLANE_ANGLE_UNIT()
);
#585=DIMENSIONAL_EXPONENTS(0.,0.,0.,0.,0.,0.,0.);
#586=PLANE_ANGLE_MEASURE_WITH_UNIT(PLANE_ANGLE_MEASURE(0.0174532925),#587);
#587=(
NAMED_UNIT(*)
PLANE_ANGLE_UNIT()
SI_UNIT($,.RADIAN.)
);
#588=(
LENGTH_UNIT()
NAMED_UNIT(*)
SI_UNIT(.MILLI.,.METRE.)
);
ENDSEC;
END-ISO-10303-21;
