ISO-10303-21;
HEADER;
/* Generated by software containing ST-Developer
 * from STEP Tools, Inc. (www.steptools.com) 
 */
/* OPTION: using custom schema-name function */

FILE_DESCRIPTION(
/* description */ (''),
/* implementation_level */ '2;1');

FILE_NAME(
/* name */ 'A76003.stp',
/* time_stamp */ '2017-10-27T11:34:31+05:00',
/* author */ (''),
/* organization */ (''),
/* preprocessor_version */ 'ST-DEVELOPER v16',
/* originating_system */ 'SIEMENS PLM Software NX 11.0',
/* authorisation */ '');

FILE_SCHEMA (('AUTOMOTIVE_DESIGN { 1 0 10303 214 3 1 1 1 }'));
ENDSEC;

DATA;
#10=CONSTRUCTIVE_GEOMETRY_REPRESENTATION_RELATIONSHIP(
'supplemental geometry','',#32,#11);
#11=CONSTRUCTIVE_GEOMETRY_REPRESENTATION('supplemental geometry',(#419,
#420,#421),#701);
#12=PROPERTY_DEFINITION_REPRESENTATION(#16,#14);
#13=PROPERTY_DEFINITION_REPRESENTATION(#17,#15);
#14=REPRESENTATION('',(#18),#701);
#15=REPRESENTATION('',(#19),#701);
#16=PROPERTY_DEFINITION('pmi validation property','',#23);
#17=PROPERTY_DEFINITION('pmi validation property','',#23);
#18=VALUE_REPRESENTATION_ITEM('number of annotations',COUNT_MEASURE(0.));
#19=VALUE_REPRESENTATION_ITEM('number of views',COUNT_MEASURE(0.));
#20=SHAPE_REPRESENTATION_RELATIONSHIP('None',
'relationship between A76003-None and A76003-None',#32,#21);
#21=ADVANCED_BREP_SHAPE_REPRESENTATION('A76003-None',(#67,#68,#69),#701);
#22=SHAPE_DEFINITION_REPRESENTATION(#23,#32);
#23=PRODUCT_DEFINITION_SHAPE('','',#24);
#24=PRODUCT_DEFINITION(' ','',#26,#25);
#25=PRODUCT_DEFINITION_CONTEXT('part definition',#31,'design');
#26=PRODUCT_DEFINITION_FORMATION_WITH_SPECIFIED_SOURCE(' ',' ',#28,
 .NOT_KNOWN.);
#27=PRODUCT_RELATED_PRODUCT_CATEGORY('part','',(#28));
#28=PRODUCT('A76003','A76003',' ',(#29));
#29=PRODUCT_CONTEXT(' ',#31,'mechanical');
#30=APPLICATION_PROTOCOL_DEFINITION('international standard',
'automotive_design',2010,#31);
#31=APPLICATION_CONTEXT(
'core data for automotive mechanical design processes');
#32=SHAPE_REPRESENTATION('A76003-None',(#418),#701);
#33=B_SPLINE_CURVE_WITH_KNOTS('',3,(#668,#669,#670,#671,#672,#673),
 .UNSPECIFIED.,.F.,.F.,(4,1,1,4),(0.,0.3333333333333,0.6666666666667,1.),
 .UNSPECIFIED.);
#34=B_SPLINE_CURVE_WITH_KNOTS('',3,(#674,#675,#676,#677,#678,#679),
 .UNSPECIFIED.,.F.,.F.,(4,1,1,4),(0.,0.3333333333333,0.6666666666667,1.),
 .UNSPECIFIED.);
#35=B_SPLINE_CURVE_WITH_KNOTS('',3,(#681,#682,#683,#684,#685,#686),
 .UNSPECIFIED.,.F.,.F.,(4,1,1,4),(0.,0.3333333333333,0.6666666666667,1.),
 .UNSPECIFIED.);
#36=B_SPLINE_CURVE_WITH_KNOTS('',3,(#687,#688,#689,#690,#691,#692),
 .UNSPECIFIED.,.F.,.F.,(4,1,1,4),(0.,0.3333333333333,0.6666666666667,1.),
 .UNSPECIFIED.);
#37=ELLIPSE('',#446,38.1837661840736,27.);
#38=ELLIPSE('',#448,38.1837661840736,27.);
#39=CONICAL_SURFACE('',#445,26.,45.);
#40=CONICAL_SURFACE('',#456,26.49999994292,44.99999987386);
#41=CONICAL_SURFACE('',#457,26.49999996001,44.99999991171);
#42=FACE_BOUND('',#148,.T.);
#43=FACE_BOUND('',#149,.T.);
#44=FACE_BOUND('',#152,.T.);
#45=FACE_BOUND('',#153,.T.);
#46=FACE_BOUND('',#154,.T.);
#47=FACE_BOUND('',#155,.T.);
#48=FACE_BOUND('',#160,.T.);
#49=FACE_BOUND('',#161,.T.);
#50=FACE_BOUND('',#167,.T.);
#51=FACE_BOUND('',#168,.T.);
#52=SURFACE_STYLE_USAGE(.BOTH.,#55);
#53=SURFACE_STYLE_USAGE(.BOTH.,#56);
#54=SURFACE_STYLE_USAGE(.BOTH.,#57);
#55=SURFACE_SIDE_STYLE('',(#58));
#56=SURFACE_SIDE_STYLE('',(#59));
#57=SURFACE_SIDE_STYLE('',(#60));
#58=SURFACE_STYLE_FILL_AREA(#61);
#59=SURFACE_STYLE_FILL_AREA(#62);
#60=SURFACE_STYLE_FILL_AREA(#63);
#61=FILL_AREA_STYLE('',(#64));
#62=FILL_AREA_STYLE('',(#65));
#63=FILL_AREA_STYLE('',(#66));
#64=FILL_AREA_STYLE_COLOUR('',#413);
#65=FILL_AREA_STYLE_COLOUR('',#414);
#66=FILL_AREA_STYLE_COLOUR('',#414);
#67=MANIFOLD_SOLID_BREP('NOCUT',#70);
#68=MANIFOLD_SOLID_BREP('NOCUT',#71);
#69=MANIFOLD_SOLID_BREP('NOCUT',#72);
#70=CLOSED_SHELL('',(#77,#78,#79,#80,#81,#82));
#71=CLOSED_SHELL('',(#83,#84,#85,#86,#87));
#72=CLOSED_SHELL('',(#88,#89,#90,#91,#92,#93,#94,#95,#96,#97,#98,#99,#100,
#101));
#73=CYLINDRICAL_SURFACE('',#428,25.);
#74=CYLINDRICAL_SURFACE('',#436,14.);
#75=CYLINDRICAL_SURFACE('',#454,27.);
#76=CYLINDRICAL_SURFACE('',#461,8.);
#77=ADVANCED_FACE('',(#120),#102,.F.);
#78=ADVANCED_FACE('',(#121),#103,.T.);
#79=ADVANCED_FACE('',(#122),#104,.T.);
#80=ADVANCED_FACE('',(#123),#105,.T.);
#81=ADVANCED_FACE('',(#124),#73,.T.);
#82=ADVANCED_FACE('',(#125),#106,.T.);
#83=ADVANCED_FACE('',(#126),#107,.F.);
#84=ADVANCED_FACE('',(#127),#108,.F.);
#85=ADVANCED_FACE('',(#42,#43),#74,.T.);
#86=ADVANCED_FACE('',(#128),#109,.F.);
#87=ADVANCED_FACE('',(#129),#110,.F.);
#88=ADVANCED_FACE('',(#44,#45),#111,.T.);
#89=ADVANCED_FACE('',(#46,#47),#39,.T.);
#90=ADVANCED_FACE('',(#130),#112,.F.);
#91=ADVANCED_FACE('',(#131),#113,.F.);
#92=ADVANCED_FACE('',(#132),#114,.F.);
#93=ADVANCED_FACE('',(#133),#115,.F.);
#94=ADVANCED_FACE('',(#48,#49),#75,.T.);
#95=ADVANCED_FACE('',(#134),#116,.F.);
#96=ADVANCED_FACE('',(#135),#40,.T.);
#97=ADVANCED_FACE('',(#136),#41,.T.);
#98=ADVANCED_FACE('',(#137),#117,.T.);
#99=ADVANCED_FACE('',(#138),#118,.T.);
#100=ADVANCED_FACE('',(#50,#51),#76,.F.);
#101=ADVANCED_FACE('',(#139),#119,.F.);
#102=PLANE('',#423);
#103=PLANE('',#425);
#104=PLANE('',#426);
#105=PLANE('',#427);
#106=PLANE('',#429);
#107=PLANE('',#432);
#108=PLANE('',#434);
#109=PLANE('',#437);
#110=PLANE('',#438);
#111=PLANE('',#442);
#112=PLANE('',#447);
#113=PLANE('',#449);
#114=PLANE('',#450);
#115=PLANE('',#451);
#116=PLANE('',#455);
#117=PLANE('',#458);
#118=PLANE('',#459);
#119=PLANE('',#462);
#120=FACE_OUTER_BOUND('',#140,.T.);
#121=FACE_OUTER_BOUND('',#141,.T.);
#122=FACE_OUTER_BOUND('',#142,.T.);
#123=FACE_OUTER_BOUND('',#143,.T.);
#124=FACE_OUTER_BOUND('',#144,.T.);
#125=FACE_OUTER_BOUND('',#145,.T.);
#126=FACE_OUTER_BOUND('',#146,.T.);
#127=FACE_OUTER_BOUND('',#147,.T.);
#128=FACE_OUTER_BOUND('',#150,.T.);
#129=FACE_OUTER_BOUND('',#151,.T.);
#130=FACE_OUTER_BOUND('',#156,.T.);
#131=FACE_OUTER_BOUND('',#157,.T.);
#132=FACE_OUTER_BOUND('',#158,.T.);
#133=FACE_OUTER_BOUND('',#159,.T.);
#134=FACE_OUTER_BOUND('',#162,.T.);
#135=FACE_OUTER_BOUND('',#163,.T.);
#136=FACE_OUTER_BOUND('',#164,.T.);
#137=FACE_OUTER_BOUND('',#165,.T.);
#138=FACE_OUTER_BOUND('',#166,.T.);
#139=FACE_OUTER_BOUND('',#169,.T.);
#140=EDGE_LOOP('',(#218,#219,#220,#221));
#141=EDGE_LOOP('',(#222,#223,#224,#225));
#142=EDGE_LOOP('',(#226,#227,#228,#229));
#143=EDGE_LOOP('',(#230,#231,#232,#233));
#144=EDGE_LOOP('',(#234,#235,#236,#237));
#145=EDGE_LOOP('',(#238,#239,#240,#241));
#146=EDGE_LOOP('',(#242,#243,#244));
#147=EDGE_LOOP('',(#245));
#148=EDGE_LOOP('',(#246,#247,#248,#249,#250));
#149=EDGE_LOOP('',(#251));
#150=EDGE_LOOP('',(#252,#253));
#151=EDGE_LOOP('',(#254,#255,#256,#257));
#152=EDGE_LOOP('',(#258,#259,#260,#261));
#153=EDGE_LOOP('',(#262));
#154=EDGE_LOOP('',(#263));
#155=EDGE_LOOP('',(#264));
#156=EDGE_LOOP('',(#265,#266));
#157=EDGE_LOOP('',(#267,#268));
#158=EDGE_LOOP('',(#269,#270,#271,#272));
#159=EDGE_LOOP('',(#273,#274,#275,#276));
#160=EDGE_LOOP('',(#277,#278,#279,#280,#281,#282,#283,#284));
#161=EDGE_LOOP('',(#285));
#162=EDGE_LOOP('',(#286));
#163=EDGE_LOOP('',(#287,#288,#289,#290));
#164=EDGE_LOOP('',(#291,#292,#293,#294));
#165=EDGE_LOOP('',(#295,#296,#297,#298));
#166=EDGE_LOOP('',(#299,#300,#301,#302));
#167=EDGE_LOOP('',(#303));
#168=EDGE_LOOP('',(#304));
#169=EDGE_LOOP('',(#305));
#170=LINE('',#584,#194);
#171=LINE('',#586,#195);
#172=LINE('',#588,#196);
#173=LINE('',#590,#197);
#174=LINE('',#593,#198);
#175=LINE('',#597,#199);
#176=LINE('',#599,#200);
#177=LINE('',#600,#201);
#178=LINE('',#602,#202);
#179=LINE('',#604,#203);
#180=LINE('',#607,#204);
#181=LINE('',#617,#205);
#182=LINE('',#619,#206);
#183=LINE('',#623,#207);
#184=LINE('',#626,#208);
#185=LINE('',#631,#209);
#186=LINE('',#642,#210);
#187=LINE('',#650,#211);
#188=LINE('',#652,#212);
#189=LINE('',#654,#213);
#190=LINE('',#656,#214);
#191=LINE('',#658,#215);
#192=LINE('',#660,#216);
#193=LINE('',#662,#217);
#194=VECTOR('',#473,1.);
#195=VECTOR('',#474,1.);
#196=VECTOR('',#475,1.);
#197=VECTOR('',#478,1.);
#198=VECTOR('',#479,1.);
#199=VECTOR('',#482,1.);
#200=VECTOR('',#485,1.);
#201=VECTOR('',#486,1.);
#202=VECTOR('',#489,1.);
#203=VECTOR('',#492,1.);
#204=VECTOR('',#497,1.);
#205=VECTOR('',#508,1.);
#206=VECTOR('',#509,1.);
#207=VECTOR('',#514,1.);
#208=VECTOR('',#519,1.);
#209=VECTOR('',#522,1.);
#210=VECTOR('',#535,1.);
#211=VECTOR('',#542,1.);
#212=VECTOR('',#545,1.);
#213=VECTOR('',#546,1.);
#214=VECTOR('',#547,1.);
#215=VECTOR('',#550,1.);
#216=VECTOR('',#551,1.);
#217=VECTOR('',#552,1.);
#218=ORIENTED_EDGE('',*,*,#336,.T.);
#219=ORIENTED_EDGE('',*,*,#337,.T.);
#220=ORIENTED_EDGE('',*,*,#338,.T.);
#221=ORIENTED_EDGE('',*,*,#339,.T.);
#222=ORIENTED_EDGE('',*,*,#340,.T.);
#223=ORIENTED_EDGE('',*,*,#341,.T.);
#224=ORIENTED_EDGE('',*,*,#342,.T.);
#225=ORIENTED_EDGE('',*,*,#343,.F.);
#226=ORIENTED_EDGE('',*,*,#344,.F.);
#227=ORIENTED_EDGE('',*,*,#340,.F.);
#228=ORIENTED_EDGE('',*,*,#345,.T.);
#229=ORIENTED_EDGE('',*,*,#338,.F.);
#230=ORIENTED_EDGE('',*,*,#337,.F.);
#231=ORIENTED_EDGE('',*,*,#346,.T.);
#232=ORIENTED_EDGE('',*,*,#341,.F.);
#233=ORIENTED_EDGE('',*,*,#344,.T.);
#234=ORIENTED_EDGE('',*,*,#342,.F.);
#235=ORIENTED_EDGE('',*,*,#346,.F.);
#236=ORIENTED_EDGE('',*,*,#336,.F.);
#237=ORIENTED_EDGE('',*,*,#347,.F.);
#238=ORIENTED_EDGE('',*,*,#345,.F.);
#239=ORIENTED_EDGE('',*,*,#343,.T.);
#240=ORIENTED_EDGE('',*,*,#347,.T.);
#241=ORIENTED_EDGE('',*,*,#339,.F.);
#242=ORIENTED_EDGE('',*,*,#348,.F.);
#243=ORIENTED_EDGE('',*,*,#349,.T.);
#244=ORIENTED_EDGE('',*,*,#350,.T.);
#245=ORIENTED_EDGE('',*,*,#351,.F.);
#246=ORIENTED_EDGE('',*,*,#352,.F.);
#247=ORIENTED_EDGE('',*,*,#350,.F.);
#248=ORIENTED_EDGE('',*,*,#349,.F.);
#249=ORIENTED_EDGE('',*,*,#353,.F.);
#250=ORIENTED_EDGE('',*,*,#354,.F.);
#251=ORIENTED_EDGE('',*,*,#351,.T.);
#252=ORIENTED_EDGE('',*,*,#354,.T.);
#253=ORIENTED_EDGE('',*,*,#355,.T.);
#254=ORIENTED_EDGE('',*,*,#352,.T.);
#255=ORIENTED_EDGE('',*,*,#355,.F.);
#256=ORIENTED_EDGE('',*,*,#353,.T.);
#257=ORIENTED_EDGE('',*,*,#348,.T.);
#258=ORIENTED_EDGE('',*,*,#356,.T.);
#259=ORIENTED_EDGE('',*,*,#357,.T.);
#260=ORIENTED_EDGE('',*,*,#358,.T.);
#261=ORIENTED_EDGE('',*,*,#359,.F.);
#262=ORIENTED_EDGE('',*,*,#360,.T.);
#263=ORIENTED_EDGE('',*,*,#361,.T.);
#264=ORIENTED_EDGE('',*,*,#362,.F.);
#265=ORIENTED_EDGE('',*,*,#363,.T.);
#266=ORIENTED_EDGE('',*,*,#364,.T.);
#267=ORIENTED_EDGE('',*,*,#365,.T.);
#268=ORIENTED_EDGE('',*,*,#366,.F.);
#269=ORIENTED_EDGE('',*,*,#367,.F.);
#270=ORIENTED_EDGE('',*,*,#368,.F.);
#271=ORIENTED_EDGE('',*,*,#369,.T.);
#272=ORIENTED_EDGE('',*,*,#363,.F.);
#273=ORIENTED_EDGE('',*,*,#370,.T.);
#274=ORIENTED_EDGE('',*,*,#371,.F.);
#275=ORIENTED_EDGE('',*,*,#372,.T.);
#276=ORIENTED_EDGE('',*,*,#366,.T.);
#277=ORIENTED_EDGE('',*,*,#369,.F.);
#278=ORIENTED_EDGE('',*,*,#373,.T.);
#279=ORIENTED_EDGE('',*,*,#370,.F.);
#280=ORIENTED_EDGE('',*,*,#365,.F.);
#281=ORIENTED_EDGE('',*,*,#372,.F.);
#282=ORIENTED_EDGE('',*,*,#374,.T.);
#283=ORIENTED_EDGE('',*,*,#367,.T.);
#284=ORIENTED_EDGE('',*,*,#364,.F.);
#285=ORIENTED_EDGE('',*,*,#361,.F.);
#286=ORIENTED_EDGE('',*,*,#362,.T.);
#287=ORIENTED_EDGE('',*,*,#375,.F.);
#288=ORIENTED_EDGE('',*,*,#357,.F.);
#289=ORIENTED_EDGE('',*,*,#376,.T.);
#290=ORIENTED_EDGE('',*,*,#374,.F.);
#291=ORIENTED_EDGE('',*,*,#377,.T.);
#292=ORIENTED_EDGE('',*,*,#373,.F.);
#293=ORIENTED_EDGE('',*,*,#378,.F.);
#294=ORIENTED_EDGE('',*,*,#359,.T.);
#295=ORIENTED_EDGE('',*,*,#368,.T.);
#296=ORIENTED_EDGE('',*,*,#376,.F.);
#297=ORIENTED_EDGE('',*,*,#356,.F.);
#298=ORIENTED_EDGE('',*,*,#378,.T.);
#299=ORIENTED_EDGE('',*,*,#377,.F.);
#300=ORIENTED_EDGE('',*,*,#358,.F.);
#301=ORIENTED_EDGE('',*,*,#375,.T.);
#302=ORIENTED_EDGE('',*,*,#371,.T.);
#303=ORIENTED_EDGE('',*,*,#379,.F.);
#304=ORIENTED_EDGE('',*,*,#360,.F.);
#305=ORIENTED_EDGE('',*,*,#379,.T.);
#306=VERTEX_POINT('',#582);
#307=VERTEX_POINT('',#583);
#308=VERTEX_POINT('',#585);
#309=VERTEX_POINT('',#587);
#310=VERTEX_POINT('',#591);
#311=VERTEX_POINT('',#592);
#312=VERTEX_POINT('',#594);
#313=VERTEX_POINT('',#596);
#314=VERTEX_POINT('',#608);
#315=VERTEX_POINT('',#609);
#316=VERTEX_POINT('',#611);
#317=VERTEX_POINT('',#615);
#318=VERTEX_POINT('',#618);
#319=VERTEX_POINT('',#620);
#320=VERTEX_POINT('',#627);
#321=VERTEX_POINT('',#628);
#322=VERTEX_POINT('',#630);
#323=VERTEX_POINT('',#632);
#324=VERTEX_POINT('',#635);
#325=VERTEX_POINT('',#638);
#326=VERTEX_POINT('',#640);
#327=VERTEX_POINT('',#643);
#328=VERTEX_POINT('',#644);
#329=VERTEX_POINT('',#648);
#330=VERTEX_POINT('',#649);
#331=VERTEX_POINT('',#653);
#332=VERTEX_POINT('',#655);
#333=VERTEX_POINT('',#659);
#334=VERTEX_POINT('',#661);
#335=VERTEX_POINT('',#697);
#336=EDGE_CURVE('',#306,#307,#380,.T.);
#337=EDGE_CURVE('',#307,#308,#170,.T.);
#338=EDGE_CURVE('',#308,#309,#171,.T.);
#339=EDGE_CURVE('',#309,#306,#172,.T.);
#340=EDGE_CURVE('',#310,#311,#173,.T.);
#341=EDGE_CURVE('',#311,#312,#174,.T.);
#342=EDGE_CURVE('',#312,#313,#381,.T.);
#343=EDGE_CURVE('',#310,#313,#175,.T.);
#344=EDGE_CURVE('',#311,#308,#176,.T.);
#345=EDGE_CURVE('',#310,#309,#177,.T.);
#346=EDGE_CURVE('',#307,#312,#178,.T.);
#347=EDGE_CURVE('',#313,#306,#179,.T.);
#348=EDGE_CURVE('',#314,#315,#180,.T.);
#349=EDGE_CURVE('',#314,#316,#382,.T.);
#350=EDGE_CURVE('',#316,#315,#383,.T.);
#351=EDGE_CURVE('',#317,#317,#384,.T.);
#352=EDGE_CURVE('',#315,#318,#181,.T.);
#353=EDGE_CURVE('',#319,#314,#182,.T.);
#354=EDGE_CURVE('',#318,#319,#385,.T.);
#355=EDGE_CURVE('',#319,#318,#183,.T.);
#356=EDGE_CURVE('',#320,#321,#184,.T.);
#357=EDGE_CURVE('',#321,#322,#386,.T.);
#358=EDGE_CURVE('',#322,#323,#185,.T.);
#359=EDGE_CURVE('',#320,#323,#387,.T.);
#360=EDGE_CURVE('',#324,#324,#388,.T.);
#361=EDGE_CURVE('',#325,#325,#389,.T.);
#362=EDGE_CURVE('',#326,#326,#390,.T.);
#363=EDGE_CURVE('',#327,#328,#186,.T.);
#364=EDGE_CURVE('',#328,#327,#37,.T.);
#365=EDGE_CURVE('',#329,#330,#38,.T.);
#366=EDGE_CURVE('',#329,#330,#187,.T.);
#367=EDGE_CURVE('',#331,#327,#188,.T.);
#368=EDGE_CURVE('',#332,#331,#189,.T.);
#369=EDGE_CURVE('',#332,#328,#190,.T.);
#370=EDGE_CURVE('',#330,#333,#191,.T.);
#371=EDGE_CURVE('',#334,#333,#192,.T.);
#372=EDGE_CURVE('',#334,#329,#193,.T.);
#373=EDGE_CURVE('',#332,#333,#391,.T.);
#374=EDGE_CURVE('',#334,#331,#392,.T.);
#375=EDGE_CURVE('',#322,#334,#33,.T.);
#376=EDGE_CURVE('',#321,#331,#34,.T.);
#377=EDGE_CURVE('',#323,#333,#35,.T.);
#378=EDGE_CURVE('',#320,#332,#36,.T.);
#379=EDGE_CURVE('',#335,#335,#393,.T.);
#380=CIRCLE('',#422,25.);
#381=CIRCLE('',#424,25.);
#382=CIRCLE('',#430,14.);
#383=CIRCLE('',#431,14.);
#384=CIRCLE('',#433,14.);
#385=CIRCLE('',#435,14.);
#386=CIRCLE('',#439,25.99999988552);
#387=CIRCLE('',#440,25.99999991987);
#388=CIRCLE('',#441,8.);
#389=CIRCLE('',#443,27.);
#390=CIRCLE('',#444,25.);
#391=CIRCLE('',#452,27.);
#392=CIRCLE('',#453,27.);
#393=CIRCLE('',#460,8.);
#394=PRESENTATION_LAYER_ASSIGNMENT('1','Layer 1',(#419,#420,#421,#68));
#395=PRESENTATION_LAYER_ASSIGNMENT('4','Layer 4',(#67));
#396=PRESENTATION_LAYER_ASSIGNMENT('2','Layer 2',(#69));
#397=STYLED_ITEM('',(#403),#419);
#398=STYLED_ITEM('',(#404),#420);
#399=STYLED_ITEM('',(#405),#421);
#400=STYLED_ITEM('',(#406),#67);
#401=STYLED_ITEM('',(#407),#68);
#402=STYLED_ITEM('',(#408),#69);
#403=PRESENTATION_STYLE_ASSIGNMENT((#409));
#404=PRESENTATION_STYLE_ASSIGNMENT((#410));
#405=PRESENTATION_STYLE_ASSIGNMENT((#411));
#406=PRESENTATION_STYLE_ASSIGNMENT((#52));
#407=PRESENTATION_STYLE_ASSIGNMENT((#53));
#408=PRESENTATION_STYLE_ASSIGNMENT((#54));
#409=CURVE_STYLE('',#415,POSITIVE_LENGTH_MEASURE(0.18),#412);
#410=CURVE_STYLE('',#416,POSITIVE_LENGTH_MEASURE(0.18),#412);
#411=CURVE_STYLE('',#417,POSITIVE_LENGTH_MEASURE(0.18),#412);
#412=COLOUR_RGB('Strong Stone',0.576470588235294,0.54508278019379,0.392156862745098);
#413=COLOUR_RGB('Iron Gray',0.298023956664378,0.298023956664378,0.298023956664378);
#414=COLOUR_RGB('Medium Gray',0.490196078431373,0.490196078431373,0.490196078431373);
#415=DRAUGHTING_PRE_DEFINED_CURVE_FONT('continuous');
#416=DRAUGHTING_PRE_DEFINED_CURVE_FONT('continuous');
#417=DRAUGHTING_PRE_DEFINED_CURVE_FONT('continuous');
#418=AXIS2_PLACEMENT_3D('',#577,#463,#464);
#419=AXIS2_PLACEMENT_3D('MCS',#578,#465,#466);
#420=AXIS2_PLACEMENT_3D('PCS',#579,#467,#468);
#421=AXIS2_PLACEMENT_3D('CSW',#580,#469,#470);
#422=AXIS2_PLACEMENT_3D('',#581,#471,#472);
#423=AXIS2_PLACEMENT_3D('',#589,#476,#477);
#424=AXIS2_PLACEMENT_3D('',#595,#480,#481);
#425=AXIS2_PLACEMENT_3D('',#598,#483,#484);
#426=AXIS2_PLACEMENT_3D('',#601,#487,#488);
#427=AXIS2_PLACEMENT_3D('',#603,#490,#491);
#428=AXIS2_PLACEMENT_3D('',#605,#493,#494);
#429=AXIS2_PLACEMENT_3D('',#606,#495,#496);
#430=AXIS2_PLACEMENT_3D('',#610,#498,#499);
#431=AXIS2_PLACEMENT_3D('',#612,#500,#501);
#432=AXIS2_PLACEMENT_3D('',#613,#502,#503);
#433=AXIS2_PLACEMENT_3D('',#614,#504,#505);
#434=AXIS2_PLACEMENT_3D('',#616,#506,#507);
#435=AXIS2_PLACEMENT_3D('',#621,#510,#511);
#436=AXIS2_PLACEMENT_3D('',#622,#512,#513);
#437=AXIS2_PLACEMENT_3D('',#624,#515,#516);
#438=AXIS2_PLACEMENT_3D('',#625,#517,#518);
#439=AXIS2_PLACEMENT_3D('',#629,#520,#521);
#440=AXIS2_PLACEMENT_3D('',#633,#523,#524);
#441=AXIS2_PLACEMENT_3D('',#634,#525,#526);
#442=AXIS2_PLACEMENT_3D('',#636,#527,#528);
#443=AXIS2_PLACEMENT_3D('',#637,#529,#530);
#444=AXIS2_PLACEMENT_3D('',#639,#531,#532);
#445=AXIS2_PLACEMENT_3D('',#641,#533,#534);
#446=AXIS2_PLACEMENT_3D('',#645,#536,#537);
#447=AXIS2_PLACEMENT_3D('',#646,#538,#539);
#448=AXIS2_PLACEMENT_3D('',#647,#540,#541);
#449=AXIS2_PLACEMENT_3D('',#651,#543,#544);
#450=AXIS2_PLACEMENT_3D('',#657,#548,#549);
#451=AXIS2_PLACEMENT_3D('',#663,#553,#554);
#452=AXIS2_PLACEMENT_3D('',#664,#555,#556);
#453=AXIS2_PLACEMENT_3D('',#665,#557,#558);
#454=AXIS2_PLACEMENT_3D('',#666,#559,#560);
#455=AXIS2_PLACEMENT_3D('',#667,#561,#562);
#456=AXIS2_PLACEMENT_3D('',#680,#563,#564);
#457=AXIS2_PLACEMENT_3D('',#693,#565,#566);
#458=AXIS2_PLACEMENT_3D('',#694,#567,#568);
#459=AXIS2_PLACEMENT_3D('',#695,#569,#570);
#460=AXIS2_PLACEMENT_3D('',#696,#571,#572);
#461=AXIS2_PLACEMENT_3D('',#698,#573,#574);
#462=AXIS2_PLACEMENT_3D('',#699,#575,#576);
#463=DIRECTION('',(0.,0.,1.));
#464=DIRECTION('',(1.,0.,0.));
#465=DIRECTION('',(0.,0.,1.));
#466=DIRECTION('',(1.,0.,0.));
#467=DIRECTION('',(0.,0.,1.));
#468=DIRECTION('',(1.,0.,0.));
#469=DIRECTION('',(0.,0.,1.));
#470=DIRECTION('',(1.17145536458252E-15,1.,0.));
#471=DIRECTION('',(0.,0.,-1.));
#472=DIRECTION('',(-1.,0.,0.));
#473=DIRECTION('',(1.,0.,0.));
#474=DIRECTION('',(0.,-1.,0.));
#475=DIRECTION('',(-1.,0.,0.));
#476=DIRECTION('',(0.,0.,1.));
#477=DIRECTION('',(0.,-1.,0.));
#478=DIRECTION('',(0.,1.,0.));
#479=DIRECTION('',(-1.,0.,0.));
#480=DIRECTION('',(0.,0.,1.));
#481=DIRECTION('',(-1.,0.,0.));
#482=DIRECTION('',(-1.,0.,0.));
#483=DIRECTION('',(0.,0.,1.));
#484=DIRECTION('',(0.,-1.,0.));
#485=DIRECTION('',(0.,0.,-1.));
#486=DIRECTION('',(0.,0.,-1.));
#487=DIRECTION('',(1.,0.,0.));
#488=DIRECTION('',(0.,-1.,0.));
#489=DIRECTION('',(0.,0.,1.));
#490=DIRECTION('',(0.,1.,0.));
#491=DIRECTION('',(1.,0.,0.));
#492=DIRECTION('',(0.,0.,-1.));
#493=DIRECTION('',(0.,0.,1.));
#494=DIRECTION('',(0.,-1.,0.));
#495=DIRECTION('',(0.,-1.,0.));
#496=DIRECTION('',(-1.,0.,0.));
#497=DIRECTION('',(0.,-1.,0.));
#498=DIRECTION('',(0.,0.,-1.));
#499=DIRECTION('',(1.,0.,0.));
#500=DIRECTION('',(0.,0.,-1.));
#501=DIRECTION('',(1.,0.,0.));
#502=DIRECTION('',(0.,0.,1.));
#503=DIRECTION('',(1.,0.,0.));
#504=DIRECTION('',(0.,0.,-1.));
#505=DIRECTION('',(1.,0.,0.));
#506=DIRECTION('',(0.,0.,-1.));
#507=DIRECTION('',(-1.,0.,0.));
#508=DIRECTION('',(0.,0.,1.));
#509=DIRECTION('',(0.,0.,-1.));
#510=DIRECTION('',(0.,0.,-1.));
#511=DIRECTION('',(1.,0.,0.));
#512=DIRECTION('',(0.,0.,-1.));
#513=DIRECTION('',(-1.,0.,0.));
#514=DIRECTION('',(0.,-1.,0.));
#515=DIRECTION('',(0.,0.,1.));
#516=DIRECTION('',(0.,-1.,0.));
#517=DIRECTION('',(1.,0.,0.));
#518=DIRECTION('',(0.,-1.,0.));
#519=DIRECTION('',(-1.,5.213140882263E-10,4.195910849307E-10));
#520=DIRECTION('',(0.,0.,-1.));
#521=DIRECTION('',(-0.230480580734298,-0.97307692496759,0.));
#522=DIRECTION('',(2.642217124019E-10,-1.,-2.862407213425E-10));
#523=DIRECTION('',(0.,0.,1.));
#524=DIRECTION('',(0.230480582890306,-0.973076924456923,0.));
#525=DIRECTION('',(0.,0.,1.));
#526=DIRECTION('',(6.12323399573677E-17,1.,0.));
#527=DIRECTION('',(0.,0.,-1.));
#528=DIRECTION('',(-1.,0.,0.));
#529=DIRECTION('',(0.,0.,1.));
#530=DIRECTION('',(-1.,0.,0.));
#531=DIRECTION('',(0.,0.,1.));
#532=DIRECTION('',(-1.,0.,0.));
#533=DIRECTION('',(0.,0.,-1.));
#534=DIRECTION('',(-1.,0.,1.07363489984919E-16));
#535=DIRECTION('',(1.,0.,0.));
#536=DIRECTION('',(0.,-0.707106781186547,-0.707106781186547));
#537=DIRECTION('',(0.,0.707106781186547,-0.707106781186547));
#538=DIRECTION('',(0.,0.707106781186547,0.707106781186547));
#539=DIRECTION('',(0.,-0.707106781186547,0.707106781186547));
#540=DIRECTION('',(0.707106781186547,0.,-0.707106781186547));
#541=DIRECTION('',(-0.707106781186547,0.,-0.707106781186547));
#542=DIRECTION('',(0.,-1.,0.));
#543=DIRECTION('',(-0.707106781186547,0.,0.707106781186547));
#544=DIRECTION('',(-0.707106781186547,0.,-0.707106781186547));
#545=DIRECTION('',(-3.484487370302E-10,-1.500318449404E-9,1.));
#546=DIRECTION('',(-1.,3.987415293079E-10,3.206078312442E-10));
#547=DIRECTION('',(2.35315767117E-10,-1.013201257282E-9,1.));
#548=DIRECTION('',(0.,1.,0.));
#549=DIRECTION('',(0.,0.,1.));
#550=DIRECTION('',(-3.502249643136E-10,1.428645646769E-10,-1.));
#551=DIRECTION('',(2.024148957082E-10,-1.,-2.186081082672E-10));
#552=DIRECTION('',(5.003511466442E-10,2.041039823105E-10,1.));
#553=DIRECTION('',(-1.,0.,0.));
#554=DIRECTION('',(0.,0.,-1.));
#555=DIRECTION('',(0.,0.,1.));
#556=DIRECTION('',(0.226229304504795,-0.97407407407408,0.));
#557=DIRECTION('',(0.,0.,1.));
#558=DIRECTION('',(0.92592592592593,0.377705149155012,0.));
#559=DIRECTION('',(0.,0.,-1.));
#560=DIRECTION('',(-1.,0.,0.));
#561=DIRECTION('',(0.,0.,-1.));
#562=DIRECTION('',(-1.,0.,0.));
#563=DIRECTION('',(0.,0.,1.));
#564=DIRECTION('',(0.,1.,1.35195205729315E-17));
#565=DIRECTION('',(0.,0.,1.));
#566=DIRECTION('',(0.,1.,6.75976027765268E-18));
#567=DIRECTION('',(0.,-0.707106781186547,-0.707106781186547));
#568=DIRECTION('',(-1.,0.,0.));
#569=DIRECTION('',(0.707106781186547,0.,-0.707106781186547));
#570=DIRECTION('',(0.,1.,0.));
#571=DIRECTION('',(0.,0.,-1.));
#572=DIRECTION('',(6.12323399573677E-17,1.,0.));
#573=DIRECTION('',(0.,0.,-1.));
#574=DIRECTION('',(-1.,0.,0.));
#575=DIRECTION('',(0.,0.,1.));
#576=DIRECTION('',(1.,0.,0.));
#577=CARTESIAN_POINT('',(0.,0.,0.));
#578=CARTESIAN_POINT('',(0.,0.,0.));
#579=CARTESIAN_POINT('',(0.,0.,0.));
#580=CARTESIAN_POINT('',(0.,0.,-45.));
#581=CARTESIAN_POINT('',(0.6,0.,0.));
#582=CARTESIAN_POINT('',(-23.6693221990232,-6.,0.));
#583=CARTESIAN_POINT('',(-23.6693221990232,6.,0.));
#584=CARTESIAN_POINT('',(-12.65,6.,0.));
#585=CARTESIAN_POINT('',(-12.65,6.,0.));
#586=CARTESIAN_POINT('',(-12.65,-6.,0.));
#587=CARTESIAN_POINT('',(-12.65,-6.,0.));
#588=CARTESIAN_POINT('',(-24.4,-6.,0.));
#589=CARTESIAN_POINT('',(-18.15,0.,0.));
#590=CARTESIAN_POINT('',(-12.65,0.,6.5));
#591=CARTESIAN_POINT('',(-12.65,-6.,6.5));
#592=CARTESIAN_POINT('',(-12.65,6.,6.5));
#593=CARTESIAN_POINT('',(-12.65,6.,6.5));
#594=CARTESIAN_POINT('',(-23.6693221990232,6.,6.5));
#595=CARTESIAN_POINT('',(0.6,0.,6.5));
#596=CARTESIAN_POINT('',(-23.6693221990232,-6.,6.5));
#597=CARTESIAN_POINT('',(-18.15,-6.,6.5));
#598=CARTESIAN_POINT('',(-18.15,0.,6.5));
#599=CARTESIAN_POINT('',(-12.65,6.,0.));
#600=CARTESIAN_POINT('',(-12.65,-6.,0.));
#601=CARTESIAN_POINT('',(-12.65,-6.,0.));
#602=CARTESIAN_POINT('',(-23.6693221990232,6.,2.88897446858503));
#603=CARTESIAN_POINT('',(-12.65,6.,0.));
#604=CARTESIAN_POINT('',(-23.6693221990232,-6.,2.8889744767313));
#605=CARTESIAN_POINT('',(0.6,0.,6.5));
#606=CARTESIAN_POINT('',(-24.4,-6.,0.));
#607=CARTESIAN_POINT('',(-12.65,-6.,0.));
#608=CARTESIAN_POINT('',(-12.65,5.99812470693967,0.));
#609=CARTESIAN_POINT('',(-12.65,-5.99812470693966,0.));
#610=CARTESIAN_POINT('',(0.,0.,0.));
#611=CARTESIAN_POINT('',(14.,0.,0.));
#612=CARTESIAN_POINT('',(0.,0.,0.));
#613=CARTESIAN_POINT('',(0.,0.,0.));
#614=CARTESIAN_POINT('',(0.,0.,30.));
#615=CARTESIAN_POINT('',(14.,0.,30.));
#616=CARTESIAN_POINT('',(0.,0.,30.));
#617=CARTESIAN_POINT('',(-12.65,-5.99812470693966,32.5));
#618=CARTESIAN_POINT('',(-12.65,-5.99812470693966,6.5));
#619=CARTESIAN_POINT('',(-12.65,5.99812470693966,32.5));
#620=CARTESIAN_POINT('',(-12.65,5.99812470693966,6.5));
#621=CARTESIAN_POINT('',(0.,0.,6.5));
#622=CARTESIAN_POINT('',(0.,0.,32.5));
#623=CARTESIAN_POINT('',(-12.65,0.,6.5));
#624=CARTESIAN_POINT('',(-18.15,0.,6.5));
#625=CARTESIAN_POINT('',(-12.65,-6.,0.));
#626=CARTESIAN_POINT('',(5.992495250226,-25.299999987,-44.99999998664));
#627=CARTESIAN_POINT('',(5.99249513668,-25.29999995791,-45.));
#628=CARTESIAN_POINT('',(-5.992495229013,-25.29999998076,-44.99999998162));
#629=CARTESIAN_POINT('',(-4.973799150321E-14,2.087219286295E-14,-45.));
#630=CARTESIAN_POINT('',(23.99999998239,9.999999945513,-44.99999998092));
#631=CARTESIAN_POINT('',(23.99999998239,9.999999945513,-44.99999998092));
#632=CARTESIAN_POINT('',(23.99999996128,-9.999999884584,-45.));
#633=CARTESIAN_POINT('',(4.529709940471E-14,-9.592326932761E-14,-45.));
#634=CARTESIAN_POINT('',(0.,0.,-45.));
#635=CARTESIAN_POINT('',(4.89858719658941E-16,8.,-45.));
#636=CARTESIAN_POINT('',(0.,0.,-45.));
#637=CARTESIAN_POINT('',(0.,0.,-2.));
#638=CARTESIAN_POINT('',(-27.,0.,-2.));
#639=CARTESIAN_POINT('',(0.,0.,0.));
#640=CARTESIAN_POINT('',(-25.,0.,0.));
#641=CARTESIAN_POINT('',(0.,0.,-1.));
#642=CARTESIAN_POINT('',(-6.10819122163,-26.3,-34.));
#643=CARTESIAN_POINT('',(-6.1081912216301,-26.3,-34.));
#644=CARTESIAN_POINT('',(6.1081912216301,-26.3,-34.));
#645=CARTESIAN_POINT('',(0.,0.,-60.3));
#646=CARTESIAN_POINT('',(-32.40992254511,-27.,-33.3));
#647=CARTESIAN_POINT('',(0.,0.,-41.5));
#648=CARTESIAN_POINT('',(25.,10.1980390271878,-16.5));
#649=CARTESIAN_POINT('',(25.,-10.1980390271878,-16.5));
#650=CARTESIAN_POINT('',(25.,10.19803902719,-16.5));
#651=CARTESIAN_POINT('',(25.,32.4,-16.5));
#652=CARTESIAN_POINT('',(-6.10819122163,-26.3,-34.));
#653=CARTESIAN_POINT('',(-6.108191220649,-26.29999999578,-43.99999988545));
#654=CARTESIAN_POINT('',(6.108191219277,-26.29999998987,-43.9999999896));
#655=CARTESIAN_POINT('',(6.10819122163,-26.3,-43.99999991679));
#656=CARTESIAN_POINT('',(6.10819122163,-26.3,-34.));
#657=CARTESIAN_POINT('',(-32.40992254511,-26.3,-34.));
#658=CARTESIAN_POINT('',(25.,-10.19803902719,-16.5));
#659=CARTESIAN_POINT('',(25.,-10.19803902719,-43.99999991679));
#660=CARTESIAN_POINT('',(24.99999998624,10.19803902157,-43.99999998514));
#661=CARTESIAN_POINT('',(25.,10.19803902719,-43.99999988112));
#662=CARTESIAN_POINT('',(25.,10.19803902719,-16.5));
#663=CARTESIAN_POINT('',(25.,32.4,-45.));
#664=CARTESIAN_POINT('',(4.529709940471E-14,-9.592326932761E-14,-43.99999991679));
#665=CARTESIAN_POINT('',(-4.973799150321E-14,2.087219286295E-14,-43.99999988112));
#666=CARTESIAN_POINT('',(0.,0.,-11.925));
#667=CARTESIAN_POINT('',(0.,0.,0.));
#668=CARTESIAN_POINT('',(23.99999998239,9.999999945513,-44.99999998092));
#669=CARTESIAN_POINT('',(24.10850071808,10.02170009141,-44.89149924523));
#670=CARTESIAN_POINT('',(24.32724137735,10.06530660396,-44.67275863596));
#671=CARTESIAN_POINT('',(24.6605110802,10.13131292874,-44.33948892826));
#672=CARTESIAN_POINT('',(24.88625026701,10.17573086759,-44.11374970437));
#673=CARTESIAN_POINT('',(24.99999998624,10.19803902157,-43.99999998514));
#674=CARTESIAN_POINT('',(-5.992495229013,-25.29999998076,-44.99999998162));
#675=CARTESIAN_POINT('',(-6.005180931408,-25.40859858718,-44.89140137519));
#676=CARTESIAN_POINT('',(-6.03066682261,-25.62747018671,-44.67252982694));
#677=CARTESIAN_POINT('',(-6.069229778707,-25.9607558832,-44.33924412546));
#678=CARTESIAN_POINT('',(-6.095167523801,-26.18635537217,-44.11364459851));
#679=CARTESIAN_POINT('',(-6.108191218146,-26.299999985,-43.99999998568));
#680=CARTESIAN_POINT('',(-4.973799150321E-14,2.087219286295E-14,-44.4999999404));
#681=CARTESIAN_POINT('',(23.99999998767,-9.999999961769,-44.99999998664));
#682=CARTESIAN_POINT('',(24.10850072352,-10.02170010807,-44.89149925079));
#683=CARTESIAN_POINT('',(24.3272413641,-10.06530671451,-44.67275864522));
#684=CARTESIAN_POINT('',(24.66051106651,-10.1313130524,-44.33948893942));
#685=CARTESIAN_POINT('',(24.88625027097,-10.17573086884,-44.113749709));
#686=CARTESIAN_POINT('',(24.99999999037,-10.19803902326,-43.9999999896));
#687=CARTESIAN_POINT('',(5.992495250226,-25.299999987,-44.99999998664));
#688=CARTESIAN_POINT('',(6.005180953245,-25.40859859344,-44.89140138021));
#689=CARTESIAN_POINT('',(6.030666987807,-25.62747017432,-44.67252983524));
#690=CARTESIAN_POINT('',(6.069229962778,-25.96075587136,-44.33924413471));
#691=CARTESIAN_POINT('',(6.095167524273,-26.18635537708,-44.11364460239));
#692=CARTESIAN_POINT('',(6.108191219277,-26.29999998987,-43.9999999896));
#693=CARTESIAN_POINT('',(4.529709940471E-14,-9.592326932761E-14,-44.49999995832));
#694=CARTESIAN_POINT('',(0.,-25.8,-44.5));
#695=CARTESIAN_POINT('',(24.5,0.,-44.5));
#696=CARTESIAN_POINT('',(0.,0.,-15.));
#697=CARTESIAN_POINT('',(4.89858719658941E-16,8.,-15.));
#698=CARTESIAN_POINT('',(0.,0.,-15.));
#699=CARTESIAN_POINT('',(0.,0.,-15.));
#700=MECHANICAL_DESIGN_GEOMETRIC_PRESENTATION_REPRESENTATION('',(#397,#398,
#399,#400,#401,#402),#701);
#701=(
GEOMETRIC_REPRESENTATION_CONTEXT(3)
GLOBAL_UNCERTAINTY_ASSIGNED_CONTEXT((#702))
GLOBAL_UNIT_ASSIGNED_CONTEXT((#708,#704,#703))
REPRESENTATION_CONTEXT('A76003','TOP_LEVEL_ASSEMBLY_PART')
);
#702=UNCERTAINTY_MEASURE_WITH_UNIT(LENGTH_MEASURE(2.E-5),#708,
'DISTANCE_ACCURACY_VALUE','Maximum Tolerance applied to model');
#703=(
NAMED_UNIT(*)
SI_UNIT($,.STERADIAN.)
SOLID_ANGLE_UNIT()
);
#704=(
CONVERSION_BASED_UNIT('DEGREE',#706)
NAMED_UNIT(#705)
PLANE_ANGLE_UNIT()
);
#705=DIMENSIONAL_EXPONENTS(0.,0.,0.,0.,0.,0.,0.);
#706=PLANE_ANGLE_MEASURE_WITH_UNIT(PLANE_ANGLE_MEASURE(0.0174532925),#707);
#707=(
NAMED_UNIT(*)
PLANE_ANGLE_UNIT()
SI_UNIT($,.RADIAN.)
);
#708=(
LENGTH_UNIT()
NAMED_UNIT(*)
SI_UNIT(.MILLI.,.METRE.)
);
ENDSEC;
END-ISO-10303-21;
