ISO-10303-21;
HEADER;
/* Generated by software containing ST-Developer
 * from STEP Tools, Inc. (www.steptools.com) 
 */
/* OPTION: using custom schema-name function */

FILE_DESCRIPTION(
/* description */ (''),
/* implementation_level */ '2;1');

FILE_NAME(
/* name */ 'A76002.stp',
/* time_stamp */ '2017-10-27T11:34:32+05:00',
/* author */ (''),
/* organization */ (''),
/* preprocessor_version */ 'ST-DEVELOPER v16',
/* originating_system */ 'SIEMENS PLM Software NX 11.0',
/* authorisation */ '');

FILE_SCHEMA (('AUTOMOTIVE_DESIGN { 1 0 10303 214 3 1 1 1 }'));
ENDSEC;

DATA;
#10=CONSTRUCTIVE_GEOMETRY_REPRESENTATION_RELATIONSHIP(
'supplemental geometry','',#32,#11);
#11=CONSTRUCTIVE_GEOMETRY_REPRESENTATION('supplemental geometry',(#327,
#328,#329),#521);
#12=PROPERTY_DEFINITION_REPRESENTATION(#16,#14);
#13=PROPERTY_DEFINITION_REPRESENTATION(#17,#15);
#14=REPRESENTATION('',(#18),#521);
#15=REPRESENTATION('',(#19),#521);
#16=PROPERTY_DEFINITION('pmi validation property','',#23);
#17=PROPERTY_DEFINITION('pmi validation property','',#23);
#18=VALUE_REPRESENTATION_ITEM('number of annotations',COUNT_MEASURE(0.));
#19=VALUE_REPRESENTATION_ITEM('number of views',COUNT_MEASURE(0.));
#20=SHAPE_REPRESENTATION_RELATIONSHIP('None',
'relationship between A76002-None and A76002-None',#32,#21);
#21=ADVANCED_BREP_SHAPE_REPRESENTATION('A76002-None',(#88,#89,#90),#521);
#22=SHAPE_DEFINITION_REPRESENTATION(#23,#32);
#23=PRODUCT_DEFINITION_SHAPE('','',#24);
#24=PRODUCT_DEFINITION(' ','',#26,#25);
#25=PRODUCT_DEFINITION_CONTEXT('part definition',#31,'design');
#26=PRODUCT_DEFINITION_FORMATION_WITH_SPECIFIED_SOURCE(' ',' ',#28,
 .NOT_KNOWN.);
#27=PRODUCT_RELATED_PRODUCT_CATEGORY('part','',(#28));
#28=PRODUCT('A76002','A76002',' ',(#29));
#29=PRODUCT_CONTEXT(' ',#31,'mechanical');
#30=APPLICATION_PROTOCOL_DEFINITION('international standard',
'automotive_design',2010,#31);
#31=APPLICATION_CONTEXT(
'core data for automotive mechanical design processes');
#32=SHAPE_REPRESENTATION('A76002-None',(#326),#521);
#33=LINE('',#468,#53);
#34=LINE('',#470,#54);
#35=LINE('',#472,#55);
#36=LINE('',#474,#56);
#37=LINE('',#477,#57);
#38=LINE('',#481,#58);
#39=LINE('',#483,#59);
#40=LINE('',#484,#60);
#41=LINE('',#486,#61);
#42=LINE('',#488,#62);
#43=LINE('',#497,#63);
#44=LINE('',#501,#64);
#45=LINE('',#503,#65);
#46=LINE('',#505,#66);
#47=LINE('',#507,#67);
#48=LINE('',#509,#68);
#49=LINE('',#511,#69);
#50=LINE('',#513,#70);
#51=LINE('',#515,#71);
#52=LINE('',#517,#72);
#53=VECTOR('',#391,1.);
#54=VECTOR('',#392,1.);
#55=VECTOR('',#393,1.);
#56=VECTOR('',#396,1.);
#57=VECTOR('',#397,1.);
#58=VECTOR('',#400,1.);
#59=VECTOR('',#403,1.);
#60=VECTOR('',#404,1.);
#61=VECTOR('',#407,1.);
#62=VECTOR('',#410,1.);
#63=VECTOR('',#421,1.);
#64=VECTOR('',#424,1.);
#65=VECTOR('',#427,1.);
#66=VECTOR('',#428,1.);
#67=VECTOR('',#429,1.);
#68=VECTOR('',#432,1.);
#69=VECTOR('',#433,1.);
#70=VECTOR('',#436,1.);
#71=VECTOR('',#437,1.);
#72=VECTOR('',#440,1.);
#73=SURFACE_STYLE_USAGE(.BOTH.,#76);
#74=SURFACE_STYLE_USAGE(.BOTH.,#77);
#75=SURFACE_STYLE_USAGE(.BOTH.,#78);
#76=SURFACE_SIDE_STYLE('',(#79));
#77=SURFACE_SIDE_STYLE('',(#80));
#78=SURFACE_SIDE_STYLE('',(#81));
#79=SURFACE_STYLE_FILL_AREA(#82);
#80=SURFACE_STYLE_FILL_AREA(#83);
#81=SURFACE_STYLE_FILL_AREA(#84);
#82=FILL_AREA_STYLE('',(#85));
#83=FILL_AREA_STYLE('',(#86));
#84=FILL_AREA_STYLE('',(#87));
#85=FILL_AREA_STYLE_COLOUR('',#321);
#86=FILL_AREA_STYLE_COLOUR('',#322);
#87=FILL_AREA_STYLE_COLOUR('',#321);
#88=MANIFOLD_SOLID_BREP('NOCUT',#91);
#89=MANIFOLD_SOLID_BREP('NOCUT',#92);
#90=MANIFOLD_SOLID_BREP('NOCUT',#93);
#91=CLOSED_SHELL('',(#123,#124,#125,#126,#127,#128));
#92=CLOSED_SHELL('',(#129,#130,#131,#132,#133,#134));
#93=CLOSED_SHELL('',(#135,#136,#137,#138,#139,#140,#141));
#94=FACE_OUTER_BOUND('',#162,.T.);
#95=FACE_OUTER_BOUND('',#163,.T.);
#96=FACE_OUTER_BOUND('',#166,.T.);
#97=FACE_OUTER_BOUND('',#167,.T.);
#98=FACE_OUTER_BOUND('',#168,.T.);
#99=FACE_OUTER_BOUND('',#169,.T.);
#100=FACE_OUTER_BOUND('',#170,.T.);
#101=FACE_OUTER_BOUND('',#171,.T.);
#102=FACE_OUTER_BOUND('',#172,.T.);
#103=FACE_OUTER_BOUND('',#175,.T.);
#104=FACE_OUTER_BOUND('',#176,.T.);
#105=FACE_OUTER_BOUND('',#177,.T.);
#106=FACE_OUTER_BOUND('',#178,.T.);
#107=FACE_OUTER_BOUND('',#179,.T.);
#108=PLANE('',#336);
#109=PLANE('',#337);
#110=PLANE('',#339);
#111=PLANE('',#342);
#112=PLANE('',#344);
#113=PLANE('',#345);
#114=PLANE('',#346);
#115=PLANE('',#348);
#116=PLANE('',#350);
#117=PLANE('',#354);
#118=PLANE('',#355);
#119=PLANE('',#356);
#120=PLANE('',#357);
#121=PLANE('',#358);
#122=CONICAL_SURFACE('',#334,17.375,45.);
#123=ADVANCED_FACE('',(#146,#147),#142,.T.);
#124=ADVANCED_FACE('',(#148,#149),#122,.T.);
#125=ADVANCED_FACE('',(#150,#151),#108,.T.);
#126=ADVANCED_FACE('',(#94),#109,.F.);
#127=ADVANCED_FACE('',(#95),#110,.F.);
#128=ADVANCED_FACE('',(#152,#153),#143,.F.);
#129=ADVANCED_FACE('',(#96),#111,.F.);
#130=ADVANCED_FACE('',(#97),#112,.T.);
#131=ADVANCED_FACE('',(#98),#113,.T.);
#132=ADVANCED_FACE('',(#99),#114,.T.);
#133=ADVANCED_FACE('',(#100),#144,.T.);
#134=ADVANCED_FACE('',(#101),#115,.T.);
#135=ADVANCED_FACE('',(#102),#116,.F.);
#136=ADVANCED_FACE('',(#154,#155),#145,.T.);
#137=ADVANCED_FACE('',(#103),#117,.F.);
#138=ADVANCED_FACE('',(#104),#118,.F.);
#139=ADVANCED_FACE('',(#105),#119,.F.);
#140=ADVANCED_FACE('',(#106),#120,.F.);
#141=ADVANCED_FACE('',(#107),#121,.T.);
#142=CYLINDRICAL_SURFACE('',#332,18.25);
#143=CYLINDRICAL_SURFACE('',#340,6.);
#144=CYLINDRICAL_SURFACE('',#347,16.);
#145=CYLINDRICAL_SURFACE('',#353,9.);
#146=FACE_BOUND('',#156,.T.);
#147=FACE_BOUND('',#157,.T.);
#148=FACE_BOUND('',#158,.T.);
#149=FACE_BOUND('',#159,.T.);
#150=FACE_BOUND('',#160,.T.);
#151=FACE_BOUND('',#161,.T.);
#152=FACE_BOUND('',#164,.T.);
#153=FACE_BOUND('',#165,.T.);
#154=FACE_BOUND('',#173,.T.);
#155=FACE_BOUND('',#174,.T.);
#156=EDGE_LOOP('',(#180));
#157=EDGE_LOOP('',(#181));
#158=EDGE_LOOP('',(#182));
#159=EDGE_LOOP('',(#183));
#160=EDGE_LOOP('',(#184));
#161=EDGE_LOOP('',(#185));
#162=EDGE_LOOP('',(#186));
#163=EDGE_LOOP('',(#187));
#164=EDGE_LOOP('',(#188));
#165=EDGE_LOOP('',(#189));
#166=EDGE_LOOP('',(#190,#191,#192,#193));
#167=EDGE_LOOP('',(#194,#195,#196,#197));
#168=EDGE_LOOP('',(#198,#199,#200,#201));
#169=EDGE_LOOP('',(#202,#203,#204,#205));
#170=EDGE_LOOP('',(#206,#207,#208,#209));
#171=EDGE_LOOP('',(#210,#211,#212,#213));
#172=EDGE_LOOP('',(#214));
#173=EDGE_LOOP('',(#215,#216,#217,#218));
#174=EDGE_LOOP('',(#219));
#175=EDGE_LOOP('',(#220,#221,#222,#223));
#176=EDGE_LOOP('',(#224,#225,#226,#227));
#177=EDGE_LOOP('',(#228,#229,#230,#231));
#178=EDGE_LOOP('',(#232,#233,#234,#235));
#179=EDGE_LOOP('',(#236,#237,#238,#239));
#180=ORIENTED_EDGE('',*,*,#262,.F.);
#181=ORIENTED_EDGE('',*,*,#263,.F.);
#182=ORIENTED_EDGE('',*,*,#264,.F.);
#183=ORIENTED_EDGE('',*,*,#263,.T.);
#184=ORIENTED_EDGE('',*,*,#265,.F.);
#185=ORIENTED_EDGE('',*,*,#262,.T.);
#186=ORIENTED_EDGE('',*,*,#264,.T.);
#187=ORIENTED_EDGE('',*,*,#266,.F.);
#188=ORIENTED_EDGE('',*,*,#266,.T.);
#189=ORIENTED_EDGE('',*,*,#265,.T.);
#190=ORIENTED_EDGE('',*,*,#267,.T.);
#191=ORIENTED_EDGE('',*,*,#268,.T.);
#192=ORIENTED_EDGE('',*,*,#269,.T.);
#193=ORIENTED_EDGE('',*,*,#270,.T.);
#194=ORIENTED_EDGE('',*,*,#271,.T.);
#195=ORIENTED_EDGE('',*,*,#272,.T.);
#196=ORIENTED_EDGE('',*,*,#273,.T.);
#197=ORIENTED_EDGE('',*,*,#274,.F.);
#198=ORIENTED_EDGE('',*,*,#275,.F.);
#199=ORIENTED_EDGE('',*,*,#271,.F.);
#200=ORIENTED_EDGE('',*,*,#276,.T.);
#201=ORIENTED_EDGE('',*,*,#269,.F.);
#202=ORIENTED_EDGE('',*,*,#268,.F.);
#203=ORIENTED_EDGE('',*,*,#277,.T.);
#204=ORIENTED_EDGE('',*,*,#272,.F.);
#205=ORIENTED_EDGE('',*,*,#275,.T.);
#206=ORIENTED_EDGE('',*,*,#273,.F.);
#207=ORIENTED_EDGE('',*,*,#277,.F.);
#208=ORIENTED_EDGE('',*,*,#267,.F.);
#209=ORIENTED_EDGE('',*,*,#278,.F.);
#210=ORIENTED_EDGE('',*,*,#276,.F.);
#211=ORIENTED_EDGE('',*,*,#274,.T.);
#212=ORIENTED_EDGE('',*,*,#278,.T.);
#213=ORIENTED_EDGE('',*,*,#270,.F.);
#214=ORIENTED_EDGE('',*,*,#279,.F.);
#215=ORIENTED_EDGE('',*,*,#280,.F.);
#216=ORIENTED_EDGE('',*,*,#281,.T.);
#217=ORIENTED_EDGE('',*,*,#282,.F.);
#218=ORIENTED_EDGE('',*,*,#283,.F.);
#219=ORIENTED_EDGE('',*,*,#279,.T.);
#220=ORIENTED_EDGE('',*,*,#284,.F.);
#221=ORIENTED_EDGE('',*,*,#285,.F.);
#222=ORIENTED_EDGE('',*,*,#286,.F.);
#223=ORIENTED_EDGE('',*,*,#283,.T.);
#224=ORIENTED_EDGE('',*,*,#282,.T.);
#225=ORIENTED_EDGE('',*,*,#287,.F.);
#226=ORIENTED_EDGE('',*,*,#288,.T.);
#227=ORIENTED_EDGE('',*,*,#284,.T.);
#228=ORIENTED_EDGE('',*,*,#288,.F.);
#229=ORIENTED_EDGE('',*,*,#289,.F.);
#230=ORIENTED_EDGE('',*,*,#290,.F.);
#231=ORIENTED_EDGE('',*,*,#285,.T.);
#232=ORIENTED_EDGE('',*,*,#290,.T.);
#233=ORIENTED_EDGE('',*,*,#291,.F.);
#234=ORIENTED_EDGE('',*,*,#280,.T.);
#235=ORIENTED_EDGE('',*,*,#286,.T.);
#236=ORIENTED_EDGE('',*,*,#289,.T.);
#237=ORIENTED_EDGE('',*,*,#287,.T.);
#238=ORIENTED_EDGE('',*,*,#281,.F.);
#239=ORIENTED_EDGE('',*,*,#291,.T.);
#240=VERTEX_POINT('',#450);
#241=VERTEX_POINT('',#452);
#242=VERTEX_POINT('',#455);
#243=VERTEX_POINT('',#458);
#244=VERTEX_POINT('',#462);
#245=VERTEX_POINT('',#466);
#246=VERTEX_POINT('',#467);
#247=VERTEX_POINT('',#469);
#248=VERTEX_POINT('',#471);
#249=VERTEX_POINT('',#475);
#250=VERTEX_POINT('',#476);
#251=VERTEX_POINT('',#478);
#252=VERTEX_POINT('',#480);
#253=VERTEX_POINT('',#492);
#254=VERTEX_POINT('',#495);
#255=VERTEX_POINT('',#496);
#256=VERTEX_POINT('',#498);
#257=VERTEX_POINT('',#500);
#258=VERTEX_POINT('',#504);
#259=VERTEX_POINT('',#506);
#260=VERTEX_POINT('',#510);
#261=VERTEX_POINT('',#514);
#262=EDGE_CURVE('',#240,#240,#292,.T.);
#263=EDGE_CURVE('',#241,#241,#293,.T.);
#264=EDGE_CURVE('',#242,#242,#294,.T.);
#265=EDGE_CURVE('',#243,#243,#295,.T.);
#266=EDGE_CURVE('',#244,#244,#296,.T.);
#267=EDGE_CURVE('',#245,#246,#297,.T.);
#268=EDGE_CURVE('',#246,#247,#33,.T.);
#269=EDGE_CURVE('',#247,#248,#34,.T.);
#270=EDGE_CURVE('',#248,#245,#35,.T.);
#271=EDGE_CURVE('',#249,#250,#36,.T.);
#272=EDGE_CURVE('',#250,#251,#37,.T.);
#273=EDGE_CURVE('',#251,#252,#298,.T.);
#274=EDGE_CURVE('',#249,#252,#38,.T.);
#275=EDGE_CURVE('',#250,#247,#39,.T.);
#276=EDGE_CURVE('',#249,#248,#40,.T.);
#277=EDGE_CURVE('',#246,#251,#41,.T.);
#278=EDGE_CURVE('',#252,#245,#42,.T.);
#279=EDGE_CURVE('',#253,#253,#299,.T.);
#280=EDGE_CURVE('',#254,#255,#300,.T.);
#281=EDGE_CURVE('',#254,#256,#43,.T.);
#282=EDGE_CURVE('',#257,#256,#301,.T.);
#283=EDGE_CURVE('',#255,#257,#44,.T.);
#284=EDGE_CURVE('',#258,#257,#45,.T.);
#285=EDGE_CURVE('',#259,#258,#46,.T.);
#286=EDGE_CURVE('',#255,#259,#47,.T.);
#287=EDGE_CURVE('',#260,#256,#48,.T.);
#288=EDGE_CURVE('',#260,#258,#49,.T.);
#289=EDGE_CURVE('',#261,#260,#50,.T.);
#290=EDGE_CURVE('',#259,#261,#51,.T.);
#291=EDGE_CURVE('',#254,#261,#52,.T.);
#292=CIRCLE('',#330,18.25);
#293=CIRCLE('',#331,18.25);
#294=CIRCLE('',#333,16.5);
#295=CIRCLE('',#335,6.);
#296=CIRCLE('',#338,6.);
#297=CIRCLE('',#341,16.);
#298=CIRCLE('',#343,16.);
#299=CIRCLE('',#349,9.);
#300=CIRCLE('',#351,9.);
#301=CIRCLE('',#352,9.);
#302=PRESENTATION_LAYER_ASSIGNMENT('1','Layer 1',(#327,#328,#329,#90));
#303=PRESENTATION_LAYER_ASSIGNMENT('2','Layer 2',(#88));
#304=PRESENTATION_LAYER_ASSIGNMENT('4','Layer 4',(#89));
#305=STYLED_ITEM('',(#311),#327);
#306=STYLED_ITEM('',(#312),#328);
#307=STYLED_ITEM('',(#313),#329);
#308=STYLED_ITEM('',(#314),#88);
#309=STYLED_ITEM('',(#315),#89);
#310=STYLED_ITEM('',(#316),#90);
#311=PRESENTATION_STYLE_ASSIGNMENT((#317));
#312=PRESENTATION_STYLE_ASSIGNMENT((#318));
#313=PRESENTATION_STYLE_ASSIGNMENT((#319));
#314=PRESENTATION_STYLE_ASSIGNMENT((#73));
#315=PRESENTATION_STYLE_ASSIGNMENT((#74));
#316=PRESENTATION_STYLE_ASSIGNMENT((#75));
#317=CURVE_STYLE('',#323,POSITIVE_LENGTH_MEASURE(0.18),#320);
#318=CURVE_STYLE('',#324,POSITIVE_LENGTH_MEASURE(0.18),#320);
#319=CURVE_STYLE('',#325,POSITIVE_LENGTH_MEASURE(0.18),#320);
#320=COLOUR_RGB('Strong Stone',0.576470588235294,0.54508278019379,0.392156862745098);
#321=COLOUR_RGB('Medium Gray',0.490196078431373,0.490196078431373,0.490196078431373);
#322=COLOUR_RGB('Iron Gray',0.298023956664378,0.298023956664378,0.298023956664378);
#323=DRAUGHTING_PRE_DEFINED_CURVE_FONT('continuous');
#324=DRAUGHTING_PRE_DEFINED_CURVE_FONT('continuous');
#325=DRAUGHTING_PRE_DEFINED_CURVE_FONT('continuous');
#326=AXIS2_PLACEMENT_3D('',#445,#359,#360);
#327=AXIS2_PLACEMENT_3D('MCS',#446,#361,#362);
#328=AXIS2_PLACEMENT_3D('PCS',#447,#363,#364);
#329=AXIS2_PLACEMENT_3D('CSW',#448,#365,#366);
#330=AXIS2_PLACEMENT_3D('',#449,#367,#368);
#331=AXIS2_PLACEMENT_3D('',#451,#369,#370);
#332=AXIS2_PLACEMENT_3D('',#453,#371,#372);
#333=AXIS2_PLACEMENT_3D('',#454,#373,#374);
#334=AXIS2_PLACEMENT_3D('',#456,#375,#376);
#335=AXIS2_PLACEMENT_3D('',#457,#377,#378);
#336=AXIS2_PLACEMENT_3D('',#459,#379,#380);
#337=AXIS2_PLACEMENT_3D('',#460,#381,#382);
#338=AXIS2_PLACEMENT_3D('',#461,#383,#384);
#339=AXIS2_PLACEMENT_3D('',#463,#385,#386);
#340=AXIS2_PLACEMENT_3D('',#464,#387,#388);
#341=AXIS2_PLACEMENT_3D('',#465,#389,#390);
#342=AXIS2_PLACEMENT_3D('',#473,#394,#395);
#343=AXIS2_PLACEMENT_3D('',#479,#398,#399);
#344=AXIS2_PLACEMENT_3D('',#482,#401,#402);
#345=AXIS2_PLACEMENT_3D('',#485,#405,#406);
#346=AXIS2_PLACEMENT_3D('',#487,#408,#409);
#347=AXIS2_PLACEMENT_3D('',#489,#411,#412);
#348=AXIS2_PLACEMENT_3D('',#490,#413,#414);
#349=AXIS2_PLACEMENT_3D('',#491,#415,#416);
#350=AXIS2_PLACEMENT_3D('',#493,#417,#418);
#351=AXIS2_PLACEMENT_3D('',#494,#419,#420);
#352=AXIS2_PLACEMENT_3D('',#499,#422,#423);
#353=AXIS2_PLACEMENT_3D('',#502,#425,#426);
#354=AXIS2_PLACEMENT_3D('',#508,#430,#431);
#355=AXIS2_PLACEMENT_3D('',#512,#434,#435);
#356=AXIS2_PLACEMENT_3D('',#516,#438,#439);
#357=AXIS2_PLACEMENT_3D('',#518,#441,#442);
#358=AXIS2_PLACEMENT_3D('',#519,#443,#444);
#359=DIRECTION('',(0.,0.,1.));
#360=DIRECTION('',(1.,0.,0.));
#361=DIRECTION('',(0.,0.,1.));
#362=DIRECTION('',(1.,0.,0.));
#363=DIRECTION('',(0.,0.,1.));
#364=DIRECTION('',(1.,0.,0.));
#365=DIRECTION('',(0.,0.,1.));
#366=DIRECTION('',(1.17145536458252E-15,1.,0.));
#367=DIRECTION('',(0.,0.,-1.));
#368=DIRECTION('',(0.,-1.,0.));
#369=DIRECTION('',(0.,0.,1.));
#370=DIRECTION('',(-1.,0.,0.));
#371=DIRECTION('',(0.,0.,-1.));
#372=DIRECTION('',(1.,0.,0.));
#373=DIRECTION('',(0.,0.,1.));
#374=DIRECTION('',(-1.,-5.887969169846E-13,0.));
#375=DIRECTION('',(0.,0.,-1.));
#376=DIRECTION('',(1.,0.,4.01763576878767E-17));
#377=DIRECTION('',(0.,0.,-1.));
#378=DIRECTION('',(-1.,0.,0.));
#379=DIRECTION('',(0.,0.,-1.));
#380=DIRECTION('',(1.,0.,0.));
#381=DIRECTION('',(0.,0.,-1.));
#382=DIRECTION('',(1.,0.,0.));
#383=DIRECTION('',(0.,0.,1.));
#384=DIRECTION('',(0.,1.,0.));
#385=DIRECTION('',(0.,0.,1.));
#386=DIRECTION('',(-1.,0.,0.));
#387=DIRECTION('',(0.,0.,-1.));
#388=DIRECTION('',(0.,-1.,0.));
#389=DIRECTION('',(0.,0.,-1.));
#390=DIRECTION('',(1.,0.,0.));
#391=DIRECTION('',(1.,0.,0.));
#392=DIRECTION('',(0.,-1.,0.));
#393=DIRECTION('',(-1.,0.,0.));
#394=DIRECTION('',(0.,0.,1.));
#395=DIRECTION('',(0.,1.,0.));
#396=DIRECTION('',(0.,1.,0.));
#397=DIRECTION('',(-1.,0.,0.));
#398=DIRECTION('',(0.,0.,1.));
#399=DIRECTION('',(1.,0.,0.));
#400=DIRECTION('',(-1.,0.,0.));
#401=DIRECTION('',(0.,0.,1.));
#402=DIRECTION('',(0.,1.,0.));
#403=DIRECTION('',(0.,0.,-1.));
#404=DIRECTION('',(0.,0.,-1.));
#405=DIRECTION('',(1.,0.,0.));
#406=DIRECTION('',(0.,1.,0.));
#407=DIRECTION('',(0.,0.,1.));
#408=DIRECTION('',(0.,1.,0.));
#409=DIRECTION('',(-1.,0.,0.));
#410=DIRECTION('',(0.,0.,-1.));
#411=DIRECTION('',(0.,0.,1.));
#412=DIRECTION('',(0.,1.,0.));
#413=DIRECTION('',(0.,-1.,0.));
#414=DIRECTION('',(1.,0.,0.));
#415=DIRECTION('',(0.,0.,-1.));
#416=DIRECTION('',(-1.,0.,0.));
#417=DIRECTION('',(0.,0.,-1.));
#418=DIRECTION('',(1.,0.,0.));
#419=DIRECTION('',(0.,0.,-1.));
#420=DIRECTION('',(-1.,0.,0.));
#421=DIRECTION('',(0.,0.,-1.));
#422=DIRECTION('',(0.,0.,-1.));
#423=DIRECTION('',(0.,-1.,0.));
#424=DIRECTION('',(0.,0.,-1.));
#425=DIRECTION('',(0.,0.,-1.));
#426=DIRECTION('',(1.,0.,0.));
#427=DIRECTION('',(-1.,0.,0.));
#428=DIRECTION('',(0.,0.,-1.));
#429=DIRECTION('',(1.,0.,0.));
#430=DIRECTION('',(0.,1.,0.));
#431=DIRECTION('',(0.,0.,-1.));
#432=DIRECTION('',(-1.,0.,0.));
#433=DIRECTION('',(0.,1.,0.));
#434=DIRECTION('',(0.,0.,1.));
#435=DIRECTION('',(0.,-1.,0.));
#436=DIRECTION('',(0.,0.,-1.));
#437=DIRECTION('',(0.,-1.,0.));
#438=DIRECTION('',(1.,0.,0.));
#439=DIRECTION('',(0.,0.,-1.));
#440=DIRECTION('',(1.,-7.245852974524E-14,0.));
#441=DIRECTION('',(0.,0.,1.));
#442=DIRECTION('',(1.,0.,0.));
#443=DIRECTION('',(0.,1.,0.));
#444=DIRECTION('',(0.,0.,-1.));
#445=CARTESIAN_POINT('',(0.,0.,0.));
#446=CARTESIAN_POINT('',(0.,0.,0.));
#447=CARTESIAN_POINT('',(0.,0.,0.));
#448=CARTESIAN_POINT('',(0.,0.,-32.));
#449=CARTESIAN_POINT('',(0.,0.,-32.));
#450=CARTESIAN_POINT('',(0.,-18.25,-32.));
#451=CARTESIAN_POINT('',(0.,0.,-1.75));
#452=CARTESIAN_POINT('',(-18.25,0.,-1.75));
#453=CARTESIAN_POINT('',(0.,0.,-8.9));
#454=CARTESIAN_POINT('',(0.,0.,0.));
#455=CARTESIAN_POINT('',(-16.5,-9.7151491302459E-12,0.));
#456=CARTESIAN_POINT('',(0.,0.,-0.875));
#457=CARTESIAN_POINT('',(0.,0.,-32.));
#458=CARTESIAN_POINT('',(-6.,0.,-32.));
#459=CARTESIAN_POINT('',(0.,0.,-32.));
#460=CARTESIAN_POINT('',(0.,0.,0.));
#461=CARTESIAN_POINT('',(0.,0.,-11.));
#462=CARTESIAN_POINT('',(0.,6.,-11.));
#463=CARTESIAN_POINT('',(0.,0.,-11.));
#464=CARTESIAN_POINT('',(0.,0.,-32.));
#465=CARTESIAN_POINT('',(-0.25,0.,0.));
#466=CARTESIAN_POINT('',(-15.7419333848297,-4.,0.));
#467=CARTESIAN_POINT('',(-15.7419333848297,4.,0.));
#468=CARTESIAN_POINT('',(-8.05,4.,0.));
#469=CARTESIAN_POINT('',(-8.05,4.,0.));
#470=CARTESIAN_POINT('',(-8.05,-4.,0.));
#471=CARTESIAN_POINT('',(-8.05,-4.,0.));
#472=CARTESIAN_POINT('',(-16.25,-4.,0.));
#473=CARTESIAN_POINT('',(-11.85,0.,0.));
#474=CARTESIAN_POINT('',(-8.05,0.,5.));
#475=CARTESIAN_POINT('',(-8.05,-4.,5.));
#476=CARTESIAN_POINT('',(-8.05,4.,5.));
#477=CARTESIAN_POINT('',(-8.05,4.,5.));
#478=CARTESIAN_POINT('',(-15.7419333848297,4.,5.));
#479=CARTESIAN_POINT('',(-0.25,0.,5.));
#480=CARTESIAN_POINT('',(-15.7419333848297,-4.,5.));
#481=CARTESIAN_POINT('',(-11.85,-4.,5.));
#482=CARTESIAN_POINT('',(-11.85,0.,5.));
#483=CARTESIAN_POINT('',(-8.05,4.,0.));
#484=CARTESIAN_POINT('',(-8.05,-4.,0.));
#485=CARTESIAN_POINT('',(-8.05,-4.,0.));
#486=CARTESIAN_POINT('',(-15.7419333848297,4.,2.28888414758284));
#487=CARTESIAN_POINT('',(-8.05,4.,0.));
#488=CARTESIAN_POINT('',(-15.7419333848297,-4.,2.28888416398353));
#489=CARTESIAN_POINT('',(-0.25,0.,5.));
#490=CARTESIAN_POINT('',(-16.25,-4.,0.));
#491=CARTESIAN_POINT('',(0.,0.,20.));
#492=CARTESIAN_POINT('',(-9.,0.,20.));
#493=CARTESIAN_POINT('',(0.,0.,20.));
#494=CARTESIAN_POINT('',(0.,0.,5.5));
#495=CARTESIAN_POINT('',(-8.062257748299,-4.,5.5));
#496=CARTESIAN_POINT('',(-8.062257748299,4.,5.5));
#497=CARTESIAN_POINT('',(-8.062257748299,-4.,5.5));
#498=CARTESIAN_POINT('',(-8.06225774829864,-3.99999999999982,0.));
#499=CARTESIAN_POINT('',(0.,0.,0.));
#500=CARTESIAN_POINT('',(-8.062257748299,4.,0.));
#501=CARTESIAN_POINT('',(-8.062257748299,4.,5.5));
#502=CARTESIAN_POINT('',(0.,0.,21.7));
#503=CARTESIAN_POINT('',(0.,4.,0.));
#504=CARTESIAN_POINT('',(-8.05,4.,0.));
#505=CARTESIAN_POINT('',(-8.05,4.,5.5));
#506=CARTESIAN_POINT('',(-8.05,4.,5.5));
#507=CARTESIAN_POINT('',(-8.062257748299,4.,5.5));
#508=CARTESIAN_POINT('',(0.,4.,0.));
#509=CARTESIAN_POINT('',(0.,-4.,0.));
#510=CARTESIAN_POINT('',(-8.05,-4.,0.));
#511=CARTESIAN_POINT('',(-8.05,-4.,0.));
#512=CARTESIAN_POINT('',(0.,0.,0.));
#513=CARTESIAN_POINT('',(-8.05,-4.,5.5));
#514=CARTESIAN_POINT('',(-8.05,-4.,5.5));
#515=CARTESIAN_POINT('',(-8.05,4.,5.5));
#516=CARTESIAN_POINT('',(-8.05,-4.,5.5));
#517=CARTESIAN_POINT('',(-8.062257748299,-4.,5.5));
#518=CARTESIAN_POINT('',(-9.05,-4.,5.5));
#519=CARTESIAN_POINT('',(0.,-4.,0.));
#520=MECHANICAL_DESIGN_GEOMETRIC_PRESENTATION_REPRESENTATION('',(#305,#306,
#307,#308,#309,#310),#521);
#521=(
GEOMETRIC_REPRESENTATION_CONTEXT(3)
GLOBAL_UNCERTAINTY_ASSIGNED_CONTEXT((#522))
GLOBAL_UNIT_ASSIGNED_CONTEXT((#528,#524,#523))
REPRESENTATION_CONTEXT('A76002','TOP_LEVEL_ASSEMBLY_PART')
);
#522=UNCERTAINTY_MEASURE_WITH_UNIT(LENGTH_MEASURE(2.E-5),#528,
'DISTANCE_ACCURACY_VALUE','Maximum Tolerance applied to model');
#523=(
NAMED_UNIT(*)
SI_UNIT($,.STERADIAN.)
SOLID_ANGLE_UNIT()
);
#524=(
CONVERSION_BASED_UNIT('DEGREE',#526)
NAMED_UNIT(#525)
PLANE_ANGLE_UNIT()
);
#525=DIMENSIONAL_EXPONENTS(0.,0.,0.,0.,0.,0.,0.);
#526=PLANE_ANGLE_MEASURE_WITH_UNIT(PLANE_ANGLE_MEASURE(0.0174532925),#527);
#527=(
NAMED_UNIT(*)
PLANE_ANGLE_UNIT()
SI_UNIT($,.RADIAN.)
);
#528=(
LENGTH_UNIT()
NAMED_UNIT(*)
SI_UNIT(.MILLI.,.METRE.)
);
ENDSEC;
END-ISO-10303-21;
