ISO-10303-21;
HEADER;
/* Generated by software containing ST-Developer
 * from STEP Tools, Inc. (www.steptools.com) 
 */
/* OPTION: using custom schema-name function */

FILE_DESCRIPTION(
/* description */ (''),
/* implementation_level */ '2;1');

FILE_NAME(
/* name */ 'A76001.stp',
/* time_stamp */ '2017-10-27T11:34:32+05:00',
/* author */ (''),
/* organization */ (''),
/* preprocessor_version */ 'ST-DEVELOPER v16',
/* originating_system */ 'SIEMENS PLM Software NX 11.0',
/* authorisation */ '');

FILE_SCHEMA (('AUTOMOTIVE_DESIGN { 1 0 10303 214 3 1 1 1 }'));
ENDSEC;

DATA;
#10=CONSTRUCTIVE_GEOMETRY_REPRESENTATION_RELATIONSHIP(
'supplemental geometry','',#32,#11);
#11=CONSTRUCTIVE_GEOMETRY_REPRESENTATION('supplemental geometry',(#337,
#338,#339),#569);
#12=PROPERTY_DEFINITION_REPRESENTATION(#16,#14);
#13=PROPERTY_DEFINITION_REPRESENTATION(#17,#15);
#14=REPRESENTATION('',(#18),#569);
#15=REPRESENTATION('',(#19),#569);
#16=PROPERTY_DEFINITION('pmi validation property','',#23);
#17=PROPERTY_DEFINITION('pmi validation property','',#23);
#18=VALUE_REPRESENTATION_ITEM('number of annotations',COUNT_MEASURE(0.));
#19=VALUE_REPRESENTATION_ITEM('number of views',COUNT_MEASURE(0.));
#20=SHAPE_REPRESENTATION_RELATIONSHIP('None',
'relationship between A76001-None and A76001-None',#32,#21);
#21=ADVANCED_BREP_SHAPE_REPRESENTATION('A76001-None',(#48,#49,#50),#569);
#22=SHAPE_DEFINITION_REPRESENTATION(#23,#32);
#23=PRODUCT_DEFINITION_SHAPE('','',#24);
#24=PRODUCT_DEFINITION(' ','',#26,#25);
#25=PRODUCT_DEFINITION_CONTEXT('part definition',#31,'design');
#26=PRODUCT_DEFINITION_FORMATION_WITH_SPECIFIED_SOURCE(' ',' ',#28,
 .NOT_KNOWN.);
#27=PRODUCT_RELATED_PRODUCT_CATEGORY('part','',(#28));
#28=PRODUCT('A76001','A76001',' ',(#29));
#29=PRODUCT_CONTEXT(' ',#31,'mechanical');
#30=APPLICATION_PROTOCOL_DEFINITION('international standard',
'automotive_design',2010,#31);
#31=APPLICATION_CONTEXT(
'core data for automotive mechanical design processes');
#32=SHAPE_REPRESENTATION('A76001-None',(#336),#569);
#33=SURFACE_STYLE_USAGE(.BOTH.,#36);
#34=SURFACE_STYLE_USAGE(.BOTH.,#37);
#35=SURFACE_STYLE_USAGE(.BOTH.,#38);
#36=SURFACE_SIDE_STYLE('',(#39));
#37=SURFACE_SIDE_STYLE('',(#40));
#38=SURFACE_SIDE_STYLE('',(#41));
#39=SURFACE_STYLE_FILL_AREA(#42);
#40=SURFACE_STYLE_FILL_AREA(#43);
#41=SURFACE_STYLE_FILL_AREA(#44);
#42=FILL_AREA_STYLE('',(#45));
#43=FILL_AREA_STYLE('',(#46));
#44=FILL_AREA_STYLE('',(#47));
#45=FILL_AREA_STYLE_COLOUR('',#331);
#46=FILL_AREA_STYLE_COLOUR('',#332);
#47=FILL_AREA_STYLE_COLOUR('',#331);
#48=MANIFOLD_SOLID_BREP('NOCUT',#51);
#49=MANIFOLD_SOLID_BREP('NOCUT',#52);
#50=MANIFOLD_SOLID_BREP('NOCUT',#53);
#51=CLOSED_SHELL('',(#114,#115,#116,#117,#118,#119,#120,#121,#122,#123,
#124));
#52=CLOSED_SHELL('',(#125,#126,#127,#128,#129,#130));
#53=CLOSED_SHELL('',(#131,#132,#133));
#54=CONICAL_SURFACE('',#349,12.25,45.);
#55=CONICAL_SURFACE('',#356,2.749999981344,44.99999954615);
#56=CYLINDRICAL_SURFACE('',#347,3.);
#57=CYLINDRICAL_SURFACE('',#350,12.5);
#58=CYLINDRICAL_SURFACE('',#354,3.);
#59=CYLINDRICAL_SURFACE('',#364,3.);
#60=CYLINDRICAL_SURFACE('',#369,7.);
#61=B_SPLINE_CURVE_WITH_KNOTS('',3,(#484,#485,#486,#487,#488,#489,#490,
#491,#492,#493,#494,#495,#496,#497,#498,#499,#500,#501,#502,#503,#504,#505,
#506,#507,#508,#509,#510,#511,#512,#513,#514),.UNSPECIFIED.,.F.,.F.,(4,
3,3,3,3,3,3,3,3,3,4),(0.,0.0861052422059846,0.194673019576281,0.30141147159157,
0.405769835394566,0.510645982845144,0.618273606176331,0.726664558549514,
0.832566388847401,0.936547088434377,1.),.UNSPECIFIED.);
#62=FACE_OUTER_BOUND('',#161,.T.);
#63=FACE_OUTER_BOUND('',#162,.T.);
#64=FACE_OUTER_BOUND('',#163,.T.);
#65=FACE_OUTER_BOUND('',#168,.T.);
#66=FACE_OUTER_BOUND('',#169,.T.);
#67=FACE_OUTER_BOUND('',#174,.T.);
#68=FACE_OUTER_BOUND('',#175,.T.);
#69=FACE_OUTER_BOUND('',#176,.T.);
#70=FACE_OUTER_BOUND('',#177,.T.);
#71=FACE_OUTER_BOUND('',#178,.T.);
#72=FACE_OUTER_BOUND('',#179,.T.);
#73=FACE_OUTER_BOUND('',#180,.T.);
#74=FACE_OUTER_BOUND('',#181,.T.);
#75=FACE_OUTER_BOUND('',#184,.T.);
#76=LINE('',#469,#95);
#77=LINE('',#472,#96);
#78=LINE('',#476,#97);
#79=LINE('',#478,#98);
#80=LINE('',#480,#99);
#81=LINE('',#517,#100);
#82=LINE('',#518,#101);
#83=LINE('',#523,#102);
#84=LINE('',#524,#103);
#85=LINE('',#535,#104);
#86=LINE('',#538,#105);
#87=LINE('',#542,#106);
#88=LINE('',#544,#107);
#89=LINE('',#546,#108);
#90=LINE('',#548,#109);
#91=LINE('',#550,#110);
#92=LINE('',#552,#111);
#93=LINE('',#554,#112);
#94=LINE('',#556,#113);
#95=VECTOR('',#385,1.);
#96=VECTOR('',#386,1.);
#97=VECTOR('',#389,1.);
#98=VECTOR('',#392,1.);
#99=VECTOR('',#393,1.);
#100=VECTOR('',#398,1.);
#101=VECTOR('',#399,1.);
#102=VECTOR('',#406,1.);
#103=VECTOR('',#407,1.);
#104=VECTOR('',#424,1.);
#105=VECTOR('',#425,1.);
#106=VECTOR('',#428,1.);
#107=VECTOR('',#431,1.);
#108=VECTOR('',#432,1.);
#109=VECTOR('',#433,1.);
#110=VECTOR('',#436,1.);
#111=VECTOR('',#437,1.);
#112=VECTOR('',#440,1.);
#113=VECTOR('',#441,1.);
#114=ADVANCED_FACE('',(#147,#148),#134,.F.);
#115=ADVANCED_FACE('',(#62),#135,.T.);
#116=ADVANCED_FACE('',(#63),#136,.F.);
#117=ADVANCED_FACE('',(#64),#56,.F.);
#118=ADVANCED_FACE('',(#149,#150),#54,.T.);
#119=ADVANCED_FACE('',(#151,#152),#57,.T.);
#120=ADVANCED_FACE('',(#65),#137,.F.);
#121=ADVANCED_FACE('',(#66),#138,.F.);
#122=ADVANCED_FACE('',(#153,#154),#58,.F.);
#123=ADVANCED_FACE('',(#155,#156),#55,.F.);
#124=ADVANCED_FACE('',(#67),#139,.T.);
#125=ADVANCED_FACE('',(#68),#140,.F.);
#126=ADVANCED_FACE('',(#69),#141,.T.);
#127=ADVANCED_FACE('',(#70),#142,.T.);
#128=ADVANCED_FACE('',(#71),#143,.T.);
#129=ADVANCED_FACE('',(#72),#59,.T.);
#130=ADVANCED_FACE('',(#73),#144,.T.);
#131=ADVANCED_FACE('',(#74),#145,.F.);
#132=ADVANCED_FACE('',(#157,#158),#60,.T.);
#133=ADVANCED_FACE('',(#75),#146,.F.);
#134=PLANE('',#342);
#135=PLANE('',#344);
#136=PLANE('',#346);
#137=PLANE('',#351);
#138=PLANE('',#352);
#139=PLANE('',#357);
#140=PLANE('',#359);
#141=PLANE('',#360);
#142=PLANE('',#361);
#143=PLANE('',#362);
#144=PLANE('',#365);
#145=PLANE('',#367);
#146=PLANE('',#370);
#147=FACE_BOUND('',#159,.T.);
#148=FACE_BOUND('',#160,.T.);
#149=FACE_BOUND('',#164,.T.);
#150=FACE_BOUND('',#165,.T.);
#151=FACE_BOUND('',#166,.T.);
#152=FACE_BOUND('',#167,.T.);
#153=FACE_BOUND('',#170,.T.);
#154=FACE_BOUND('',#171,.T.);
#155=FACE_BOUND('',#172,.T.);
#156=FACE_BOUND('',#173,.T.);
#157=FACE_BOUND('',#182,.T.);
#158=FACE_BOUND('',#183,.T.);
#159=EDGE_LOOP('',(#185));
#160=EDGE_LOOP('',(#186));
#161=EDGE_LOOP('',(#187,#188,#189,#190));
#162=EDGE_LOOP('',(#191,#192,#193,#194));
#163=EDGE_LOOP('',(#195,#196,#197,#198));
#164=EDGE_LOOP('',(#199));
#165=EDGE_LOOP('',(#200));
#166=EDGE_LOOP('',(#201,#202,#203,#204));
#167=EDGE_LOOP('',(#205));
#168=EDGE_LOOP('',(#206,#207,#208,#209));
#169=EDGE_LOOP('',(#210,#211,#212,#213));
#170=EDGE_LOOP('',(#214));
#171=EDGE_LOOP('',(#215));
#172=EDGE_LOOP('',(#216));
#173=EDGE_LOOP('',(#217));
#174=EDGE_LOOP('',(#218));
#175=EDGE_LOOP('',(#219,#220,#221,#222));
#176=EDGE_LOOP('',(#223,#224,#225,#226));
#177=EDGE_LOOP('',(#227,#228,#229,#230));
#178=EDGE_LOOP('',(#231,#232,#233,#234));
#179=EDGE_LOOP('',(#235,#236,#237,#238));
#180=EDGE_LOOP('',(#239,#240,#241,#242));
#181=EDGE_LOOP('',(#243));
#182=EDGE_LOOP('',(#244));
#183=EDGE_LOOP('',(#245));
#184=EDGE_LOOP('',(#246));
#185=ORIENTED_EDGE('',*,*,#270,.T.);
#186=ORIENTED_EDGE('',*,*,#271,.T.);
#187=ORIENTED_EDGE('',*,*,#272,.T.);
#188=ORIENTED_EDGE('',*,*,#273,.F.);
#189=ORIENTED_EDGE('',*,*,#274,.F.);
#190=ORIENTED_EDGE('',*,*,#275,.F.);
#191=ORIENTED_EDGE('',*,*,#276,.F.);
#192=ORIENTED_EDGE('',*,*,#272,.F.);
#193=ORIENTED_EDGE('',*,*,#277,.T.);
#194=ORIENTED_EDGE('',*,*,#278,.F.);
#195=ORIENTED_EDGE('',*,*,#279,.F.);
#196=ORIENTED_EDGE('',*,*,#280,.T.);
#197=ORIENTED_EDGE('',*,*,#274,.T.);
#198=ORIENTED_EDGE('',*,*,#281,.F.);
#199=ORIENTED_EDGE('',*,*,#271,.F.);
#200=ORIENTED_EDGE('',*,*,#282,.F.);
#201=ORIENTED_EDGE('',*,*,#283,.T.);
#202=ORIENTED_EDGE('',*,*,#278,.T.);
#203=ORIENTED_EDGE('',*,*,#284,.T.);
#204=ORIENTED_EDGE('',*,*,#279,.T.);
#205=ORIENTED_EDGE('',*,*,#282,.T.);
#206=ORIENTED_EDGE('',*,*,#277,.F.);
#207=ORIENTED_EDGE('',*,*,#275,.T.);
#208=ORIENTED_EDGE('',*,*,#280,.F.);
#209=ORIENTED_EDGE('',*,*,#284,.F.);
#210=ORIENTED_EDGE('',*,*,#283,.F.);
#211=ORIENTED_EDGE('',*,*,#281,.T.);
#212=ORIENTED_EDGE('',*,*,#273,.T.);
#213=ORIENTED_EDGE('',*,*,#276,.T.);
#214=ORIENTED_EDGE('',*,*,#285,.F.);
#215=ORIENTED_EDGE('',*,*,#270,.F.);
#216=ORIENTED_EDGE('',*,*,#285,.T.);
#217=ORIENTED_EDGE('',*,*,#286,.F.);
#218=ORIENTED_EDGE('',*,*,#286,.T.);
#219=ORIENTED_EDGE('',*,*,#287,.F.);
#220=ORIENTED_EDGE('',*,*,#288,.F.);
#221=ORIENTED_EDGE('',*,*,#289,.F.);
#222=ORIENTED_EDGE('',*,*,#290,.F.);
#223=ORIENTED_EDGE('',*,*,#291,.T.);
#224=ORIENTED_EDGE('',*,*,#292,.F.);
#225=ORIENTED_EDGE('',*,*,#293,.F.);
#226=ORIENTED_EDGE('',*,*,#290,.T.);
#227=ORIENTED_EDGE('',*,*,#293,.T.);
#228=ORIENTED_EDGE('',*,*,#294,.F.);
#229=ORIENTED_EDGE('',*,*,#295,.F.);
#230=ORIENTED_EDGE('',*,*,#287,.T.);
#231=ORIENTED_EDGE('',*,*,#295,.T.);
#232=ORIENTED_EDGE('',*,*,#296,.F.);
#233=ORIENTED_EDGE('',*,*,#297,.F.);
#234=ORIENTED_EDGE('',*,*,#288,.T.);
#235=ORIENTED_EDGE('',*,*,#297,.T.);
#236=ORIENTED_EDGE('',*,*,#298,.F.);
#237=ORIENTED_EDGE('',*,*,#291,.F.);
#238=ORIENTED_EDGE('',*,*,#289,.T.);
#239=ORIENTED_EDGE('',*,*,#298,.T.);
#240=ORIENTED_EDGE('',*,*,#296,.T.);
#241=ORIENTED_EDGE('',*,*,#294,.T.);
#242=ORIENTED_EDGE('',*,*,#292,.T.);
#243=ORIENTED_EDGE('',*,*,#299,.F.);
#244=ORIENTED_EDGE('',*,*,#300,.F.);
#245=ORIENTED_EDGE('',*,*,#299,.T.);
#246=ORIENTED_EDGE('',*,*,#300,.T.);
#247=VERTEX_POINT('',#465);
#248=VERTEX_POINT('',#467);
#249=VERTEX_POINT('',#470);
#250=VERTEX_POINT('',#471);
#251=VERTEX_POINT('',#473);
#252=VERTEX_POINT('',#475);
#253=VERTEX_POINT('',#479);
#254=VERTEX_POINT('',#481);
#255=VERTEX_POINT('',#515);
#256=VERTEX_POINT('',#516);
#257=VERTEX_POINT('',#521);
#258=VERTEX_POINT('',#529);
#259=VERTEX_POINT('',#532);
#260=VERTEX_POINT('',#536);
#261=VERTEX_POINT('',#537);
#262=VERTEX_POINT('',#539);
#263=VERTEX_POINT('',#541);
#264=VERTEX_POINT('',#545);
#265=VERTEX_POINT('',#547);
#266=VERTEX_POINT('',#551);
#267=VERTEX_POINT('',#555);
#268=VERTEX_POINT('',#562);
#269=VERTEX_POINT('',#565);
#270=EDGE_CURVE('',#247,#247,#301,.T.);
#271=EDGE_CURVE('',#248,#248,#302,.T.);
#272=EDGE_CURVE('',#249,#250,#76,.T.);
#273=EDGE_CURVE('',#251,#250,#77,.T.);
#274=EDGE_CURVE('',#252,#251,#303,.T.);
#275=EDGE_CURVE('',#249,#252,#78,.T.);
#276=EDGE_CURVE('',#250,#253,#79,.T.);
#277=EDGE_CURVE('',#249,#254,#80,.T.);
#278=EDGE_CURVE('',#253,#254,#304,.T.);
#279=EDGE_CURVE('',#255,#256,#61,.T.);
#280=EDGE_CURVE('',#255,#252,#81,.T.);
#281=EDGE_CURVE('',#256,#251,#82,.T.);
#282=EDGE_CURVE('',#257,#257,#305,.T.);
#283=EDGE_CURVE('',#256,#253,#83,.T.);
#284=EDGE_CURVE('',#254,#255,#84,.T.);
#285=EDGE_CURVE('',#258,#258,#306,.T.);
#286=EDGE_CURVE('',#259,#259,#307,.T.);
#287=EDGE_CURVE('',#260,#261,#85,.T.);
#288=EDGE_CURVE('',#262,#260,#86,.T.);
#289=EDGE_CURVE('',#263,#262,#308,.T.);
#290=EDGE_CURVE('',#261,#263,#87,.T.);
#291=EDGE_CURVE('',#263,#264,#88,.T.);
#292=EDGE_CURVE('',#265,#264,#89,.T.);
#293=EDGE_CURVE('',#261,#265,#90,.T.);
#294=EDGE_CURVE('',#266,#265,#91,.T.);
#295=EDGE_CURVE('',#260,#266,#92,.T.);
#296=EDGE_CURVE('',#267,#266,#93,.T.);
#297=EDGE_CURVE('',#262,#267,#94,.T.);
#298=EDGE_CURVE('',#264,#267,#309,.T.);
#299=EDGE_CURVE('',#268,#268,#310,.T.);
#300=EDGE_CURVE('',#269,#269,#311,.T.);
#301=CIRCLE('',#340,3.);
#302=CIRCLE('',#341,12.);
#303=CIRCLE('',#343,3.);
#304=CIRCLE('',#345,12.5);
#305=CIRCLE('',#348,12.5);
#306=CIRCLE('',#353,3.);
#307=CIRCLE('',#355,2.499999979559);
#308=CIRCLE('',#358,3.);
#309=CIRCLE('',#363,3.);
#310=CIRCLE('',#366,7.);
#311=CIRCLE('',#368,7.);
#312=PRESENTATION_LAYER_ASSIGNMENT('1','Layer 1',(#337,#338,#339,#50));
#313=PRESENTATION_LAYER_ASSIGNMENT('2','Layer 2',(#48));
#314=PRESENTATION_LAYER_ASSIGNMENT('4','Layer 4',(#49));
#315=STYLED_ITEM('',(#321),#337);
#316=STYLED_ITEM('',(#322),#338);
#317=STYLED_ITEM('',(#323),#339);
#318=STYLED_ITEM('',(#324),#48);
#319=STYLED_ITEM('',(#325),#49);
#320=STYLED_ITEM('',(#326),#50);
#321=PRESENTATION_STYLE_ASSIGNMENT((#327));
#322=PRESENTATION_STYLE_ASSIGNMENT((#328));
#323=PRESENTATION_STYLE_ASSIGNMENT((#329));
#324=PRESENTATION_STYLE_ASSIGNMENT((#33));
#325=PRESENTATION_STYLE_ASSIGNMENT((#34));
#326=PRESENTATION_STYLE_ASSIGNMENT((#35));
#327=CURVE_STYLE('',#333,POSITIVE_LENGTH_MEASURE(0.18),#330);
#328=CURVE_STYLE('',#334,POSITIVE_LENGTH_MEASURE(0.18),#330);
#329=CURVE_STYLE('',#335,POSITIVE_LENGTH_MEASURE(0.18),#330);
#330=COLOUR_RGB('Strong Stone',0.576470588235294,0.54508278019379,0.392156862745098);
#331=COLOUR_RGB('Medium Gray',0.490196078431373,0.490196078431373,0.490196078431373);
#332=COLOUR_RGB('Iron Gray',0.298023956664378,0.298023956664378,0.298023956664378);
#333=DRAUGHTING_PRE_DEFINED_CURVE_FONT('continuous');
#334=DRAUGHTING_PRE_DEFINED_CURVE_FONT('continuous');
#335=DRAUGHTING_PRE_DEFINED_CURVE_FONT('continuous');
#336=AXIS2_PLACEMENT_3D('',#460,#371,#372);
#337=AXIS2_PLACEMENT_3D('MCS',#461,#373,#374);
#338=AXIS2_PLACEMENT_3D('PCS',#462,#375,#376);
#339=AXIS2_PLACEMENT_3D('CSW',#463,#377,#378);
#340=AXIS2_PLACEMENT_3D('',#464,#379,#380);
#341=AXIS2_PLACEMENT_3D('',#466,#381,#382);
#342=AXIS2_PLACEMENT_3D('',#468,#383,#384);
#343=AXIS2_PLACEMENT_3D('',#474,#387,#388);
#344=AXIS2_PLACEMENT_3D('',#477,#390,#391);
#345=AXIS2_PLACEMENT_3D('',#482,#394,#395);
#346=AXIS2_PLACEMENT_3D('',#483,#396,#397);
#347=AXIS2_PLACEMENT_3D('',#519,#400,#401);
#348=AXIS2_PLACEMENT_3D('',#520,#402,#403);
#349=AXIS2_PLACEMENT_3D('',#522,#404,#405);
#350=AXIS2_PLACEMENT_3D('',#525,#408,#409);
#351=AXIS2_PLACEMENT_3D('',#526,#410,#411);
#352=AXIS2_PLACEMENT_3D('',#527,#412,#413);
#353=AXIS2_PLACEMENT_3D('',#528,#414,#415);
#354=AXIS2_PLACEMENT_3D('',#530,#416,#417);
#355=AXIS2_PLACEMENT_3D('',#531,#418,#419);
#356=AXIS2_PLACEMENT_3D('',#533,#420,#421);
#357=AXIS2_PLACEMENT_3D('',#534,#422,#423);
#358=AXIS2_PLACEMENT_3D('',#540,#426,#427);
#359=AXIS2_PLACEMENT_3D('',#543,#429,#430);
#360=AXIS2_PLACEMENT_3D('',#549,#434,#435);
#361=AXIS2_PLACEMENT_3D('',#553,#438,#439);
#362=AXIS2_PLACEMENT_3D('',#557,#442,#443);
#363=AXIS2_PLACEMENT_3D('',#558,#444,#445);
#364=AXIS2_PLACEMENT_3D('',#559,#446,#447);
#365=AXIS2_PLACEMENT_3D('',#560,#448,#449);
#366=AXIS2_PLACEMENT_3D('',#561,#450,#451);
#367=AXIS2_PLACEMENT_3D('',#563,#452,#453);
#368=AXIS2_PLACEMENT_3D('',#564,#454,#455);
#369=AXIS2_PLACEMENT_3D('',#566,#456,#457);
#370=AXIS2_PLACEMENT_3D('',#567,#458,#459);
#371=DIRECTION('',(0.,0.,1.));
#372=DIRECTION('',(1.,0.,0.));
#373=DIRECTION('',(0.,0.,1.));
#374=DIRECTION('',(1.,0.,0.));
#375=DIRECTION('',(0.,0.,1.));
#376=DIRECTION('',(1.,0.,0.));
#377=DIRECTION('',(0.,0.,1.));
#378=DIRECTION('',(1.17145536458252E-15,1.,0.));
#379=DIRECTION('',(0.,0.,1.));
#380=DIRECTION('',(1.,0.,0.));
#381=DIRECTION('',(0.,0.,-1.));
#382=DIRECTION('',(-0.399652626942692,-0.916666666666682,0.));
#383=DIRECTION('',(0.,0.,1.));
#384=DIRECTION('',(-1.,0.,0.));
#385=DIRECTION('',(0.,1.,0.));
#386=DIRECTION('',(0.,0.,1.));
#387=DIRECTION('',(1.,0.,0.));
#388=DIRECTION('',(0.,-1.,0.));
#389=DIRECTION('',(0.,0.,-1.));
#390=DIRECTION('',(-1.,0.,0.));
#391=DIRECTION('',(0.,0.,-1.));
#392=DIRECTION('',(-1.,0.,0.));
#393=DIRECTION('',(-1.,0.,0.));
#394=DIRECTION('',(0.,0.,-1.));
#395=DIRECTION('',(-1.,0.,0.));
#396=DIRECTION('',(0.,0.,-1.));
#397=DIRECTION('',(1.,0.,0.));
#398=DIRECTION('',(1.,0.,-1.054344410364E-10));
#399=DIRECTION('',(1.,0.,-1.014574962341E-10));
#400=DIRECTION('',(-1.,0.,0.));
#401=DIRECTION('',(0.,0.,-1.));
#402=DIRECTION('',(0.,0.,1.));
#403=DIRECTION('',(0.920000000000003,0.391918358845301,0.));
#404=DIRECTION('',(0.,0.,1.));
#405=DIRECTION('',(-1.,0.,-4.79844478412947E-17));
#406=DIRECTION('',(0.,0.,1.));
#407=DIRECTION('',(0.,0.,-1.));
#408=DIRECTION('',(0.,0.,-1.));
#409=DIRECTION('',(1.,0.,0.));
#410=DIRECTION('',(0.,-1.,0.));
#411=DIRECTION('',(0.,0.,1.));
#412=DIRECTION('',(0.,1.,0.));
#413=DIRECTION('',(0.,0.,-1.));
#414=DIRECTION('',(0.,0.,-1.));
#415=DIRECTION('',(0.435889894354094,-0.899999999999987,0.));
#416=DIRECTION('',(0.,0.,-1.));
#417=DIRECTION('',(0.,1.,0.));
#418=DIRECTION('',(0.,0.,-1.));
#419=DIRECTION('',(0.,-1.,0.));
#420=DIRECTION('',(0.,0.,-1.));
#421=DIRECTION('',(1.,0.,-1.38397287732002E-17));
#422=DIRECTION('',(0.,0.,-1.));
#423=DIRECTION('',(0.,1.,0.));
#424=DIRECTION('',(0.,1.,0.));
#425=DIRECTION('',(0.,0.,1.));
#426=DIRECTION('',(-1.,0.,0.));
#427=DIRECTION('',(0.,1.,0.));
#428=DIRECTION('',(0.,0.,-1.));
#429=DIRECTION('',(-1.,0.,0.));
#430=DIRECTION('',(0.,0.,-1.));
#431=DIRECTION('',(-1.,0.,0.));
#432=DIRECTION('',(0.,0.,-1.));
#433=DIRECTION('',(-1.,0.,0.));
#434=DIRECTION('',(0.,1.,0.));
#435=DIRECTION('',(0.,0.,-1.));
#436=DIRECTION('',(0.,1.,0.));
#437=DIRECTION('',(-1.,0.,0.));
#438=DIRECTION('',(0.,0.,1.));
#439=DIRECTION('',(0.,1.,0.));
#440=DIRECTION('',(0.,0.,1.));
#441=DIRECTION('',(-1.,0.,0.));
#442=DIRECTION('',(0.,-1.,0.));
#443=DIRECTION('',(0.,0.,1.));
#444=DIRECTION('',(-1.,0.,0.));
#445=DIRECTION('',(0.,1.,0.));
#446=DIRECTION('',(-1.,0.,0.));
#447=DIRECTION('',(0.,0.,-1.));
#448=DIRECTION('',(-1.,0.,0.));
#449=DIRECTION('',(0.,0.,-1.));
#450=DIRECTION('',(0.,0.,-1.));
#451=DIRECTION('',(-1.,0.,0.));
#452=DIRECTION('',(0.,0.,-1.));
#453=DIRECTION('',(1.,0.,0.));
#454=DIRECTION('',(0.,0.,-1.));
#455=DIRECTION('',(0.,-1.,0.));
#456=DIRECTION('',(0.,0.,-1.));
#457=DIRECTION('',(1.,0.,0.));
#458=DIRECTION('',(0.,0.,1.));
#459=DIRECTION('',(0.,-1.,0.));
#460=CARTESIAN_POINT('',(0.,0.,0.));
#461=CARTESIAN_POINT('',(0.,0.,0.));
#462=CARTESIAN_POINT('',(0.,0.,0.));
#463=CARTESIAN_POINT('',(0.,0.,-25.));
#464=CARTESIAN_POINT('',(0.,0.,-25.));
#465=CARTESIAN_POINT('',(3.,0.,-25.));
#466=CARTESIAN_POINT('',(0.,0.,-25.));
#467=CARTESIAN_POINT('',(-4.7958315233123,-11.0000000000002,-25.));
#468=CARTESIAN_POINT('',(0.,0.,-25.));
#469=CARTESIAN_POINT('',(-7.3,0.,0.));
#470=CARTESIAN_POINT('',(-7.3,-3.,0.));
#471=CARTESIAN_POINT('',(-7.3,3.,0.));
#472=CARTESIAN_POINT('',(-7.3,3.,-3.));
#473=CARTESIAN_POINT('',(-7.3,3.,-3.));
#474=CARTESIAN_POINT('',(-7.3,0.,-3.));
#475=CARTESIAN_POINT('',(-7.3,-3.,-3.));
#476=CARTESIAN_POINT('',(-7.3,-3.,-0.25));
#477=CARTESIAN_POINT('',(-7.3,0.,0.));
#478=CARTESIAN_POINT('',(0.,3.,0.));
#479=CARTESIAN_POINT('',(-12.1346610995116,3.,0.));
#480=CARTESIAN_POINT('',(-7.3,-3.,0.));
#481=CARTESIAN_POINT('',(-12.1346610995116,-3.,0.));
#482=CARTESIAN_POINT('',(0.,0.,0.));
#483=CARTESIAN_POINT('',(0.,0.,0.));
#484=CARTESIAN_POINT('',(-12.1346610995116,-3.,-2.99999999948991));
#485=CARTESIAN_POINT('',(-12.1346610995002,-3.00000000004615,-3.27142502332928));
#486=CARTESIAN_POINT('',(-12.1441219081303,-2.96241499196438,-3.54540785339985));
#487=CARTESIAN_POINT('',(-12.1614202433292,-2.88961202675077,-3.80631404232922));
#488=CARTESIAN_POINT('',(-12.1831184909762,-2.79829128689503,-4.1335829404581));
#489=CARTESIAN_POINT('',(-12.2177537832141,-2.64874443452093,-4.44863766284542));
#490=CARTESIAN_POINT('',(-12.2567033087746,-2.45422574362522,-4.72533359073752));
#491=CARTESIAN_POINT('',(-12.2950271977277,-2.26283155840997,-4.99758502029131));
#492=CARTESIAN_POINT('',(-12.3382751831191,-2.02271738989316,-5.2403956491421));
#493=CARTESIAN_POINT('',(-12.3765242539799,-1.75261159149659,-5.43482085775356));
#494=CARTESIAN_POINT('',(-12.4139321634216,-1.48844587403642,-5.62497032892404));
#495=CARTESIAN_POINT('',(-12.4473156917885,-1.18851314466262,-5.77385903006734));
#496=CARTESIAN_POINT('',(-12.469276694372,-0.875864555277769,-5.86929630411501));
#497=CARTESIAN_POINT('',(-12.4913339948228,-0.561845017901242,-5.9651520657031));
#498=CARTESIAN_POINT('',(-12.5022746720559,-0.226461910678714,-6.00948348827543));
#499=CARTESIAN_POINT('',(-12.4995805680679,0.102399328026041,-5.99825188695343));
#500=CARTESIAN_POINT('',(-12.4968176741055,0.439657553738768,-5.98673350324641));
#501=CARTESIAN_POINT('',(-12.4796282503359,0.779583667092672,-5.91639795355675));
#502=CARTESIAN_POINT('',(-12.4521382512545,1.0928188192211,-5.79387670242554));
#503=CARTESIAN_POINT('',(-12.4244447727652,1.40837252011126,-5.67044855596931));
#504=CARTESIAN_POINT('',(-12.3857436068915,1.7059408132768,-5.49072177456509));
#505=CARTESIAN_POINT('',(-12.3451658107737,1.96134675784395,-5.27004821435472));
#506=CARTESIAN_POINT('',(-12.3054880737156,2.21108752449803,-5.0542694305029));
#507=CARTESIAN_POINT('',(-12.2632096444376,2.42745338422574,-4.79352549772365));
#508=CARTESIAN_POINT('',(-12.2279731103611,2.59358316085779,-4.50775541375746));
#509=CARTESIAN_POINT('',(-12.1933730720382,2.75671204934507,-4.22714734273374));
#510=CARTESIAN_POINT('',(-12.1649151462804,2.87563401724536,-3.91489501147177));
#511=CARTESIAN_POINT('',(-12.1492561782412,2.94033574876557,-3.59533661447221));
#512=CARTESIAN_POINT('',(-12.1396858041512,2.97987984728893,-3.40003042346291));
#513=CARTESIAN_POINT('',(-12.1346610995035,3.00000000003259,-3.19949896200045));
#514=CARTESIAN_POINT('',(-12.1346610995116,3.,-2.9999999995099));
#515=CARTESIAN_POINT('',(-12.1346610995116,-3.,-2.99999999948991));
#516=CARTESIAN_POINT('',(-12.1346610995116,3.,-2.9999999995099));
#517=CARTESIAN_POINT('',(-11.88723609394,-3.,-2.999999999516));
#518=CARTESIAN_POINT('',(-11.88723609394,3.,-2.999999999535));
#519=CARTESIAN_POINT('',(-7.3,0.,-3.));
#520=CARTESIAN_POINT('',(0.,0.,-24.5));
#521=CARTESIAN_POINT('',(11.5,4.89897948556626,-24.5));
#522=CARTESIAN_POINT('',(0.,0.,-24.75));
#523=CARTESIAN_POINT('',(-12.1346610995116,3.,17.2));
#524=CARTESIAN_POINT('',(-12.1346610995116,-3.,17.2));
#525=CARTESIAN_POINT('',(0.,0.,17.2));
#526=CARTESIAN_POINT('',(-7.3,-3.,-3.));
#527=CARTESIAN_POINT('',(-7.3,3.,-0.25));
#528=CARTESIAN_POINT('',(0.,0.,-12.00000004753));
#529=CARTESIAN_POINT('',(1.30766968306228,-2.69999999999996,-12.00000004753));
#530=CARTESIAN_POINT('',(0.,0.,-9.91499999999999));
#531=CARTESIAN_POINT('',(0.,0.,-11.50000001916));
#532=CARTESIAN_POINT('',(0.,-2.499999979559,-11.50000001916));
#533=CARTESIAN_POINT('',(0.,0.,-11.75000002491));
#534=CARTESIAN_POINT('',(0.,0.,-11.5));
#535=CARTESIAN_POINT('',(-7.3,-3.,3.));
#536=CARTESIAN_POINT('',(-7.3,-3.,3.));
#537=CARTESIAN_POINT('',(-7.3,3.,3.));
#538=CARTESIAN_POINT('',(-7.3,-3.,-3.));
#539=CARTESIAN_POINT('',(-7.3,-3.,-3.));
#540=CARTESIAN_POINT('',(-7.3,0.,-3.));
#541=CARTESIAN_POINT('',(-7.3,3.,-3.));
#542=CARTESIAN_POINT('',(-7.3,3.,3.));
#543=CARTESIAN_POINT('',(-7.3,0.,-3.));
#544=CARTESIAN_POINT('',(-7.3,3.,-3.));
#545=CARTESIAN_POINT('',(-11.7,3.,-3.));
#546=CARTESIAN_POINT('',(-11.7,3.,3.));
#547=CARTESIAN_POINT('',(-11.7,3.,3.));
#548=CARTESIAN_POINT('',(-7.3,3.,3.));
#549=CARTESIAN_POINT('',(-7.3,3.,3.));
#550=CARTESIAN_POINT('',(-11.7,-3.,3.));
#551=CARTESIAN_POINT('',(-11.7,-3.,3.));
#552=CARTESIAN_POINT('',(-7.3,-3.,3.));
#553=CARTESIAN_POINT('',(-7.3,-3.,3.));
#554=CARTESIAN_POINT('',(-11.7,-3.,-3.));
#555=CARTESIAN_POINT('',(-11.7,-3.,-3.));
#556=CARTESIAN_POINT('',(-7.3,-3.,-3.));
#557=CARTESIAN_POINT('',(-7.3,-3.,-3.));
#558=CARTESIAN_POINT('',(-11.7,0.,-3.));
#559=CARTESIAN_POINT('',(-7.3,0.,-3.));
#560=CARTESIAN_POINT('',(-11.7,0.,-3.));
#561=CARTESIAN_POINT('',(0.,0.,16.));
#562=CARTESIAN_POINT('',(-7.,0.,16.));
#563=CARTESIAN_POINT('',(0.,0.,16.));
#564=CARTESIAN_POINT('',(0.,0.,0.));
#565=CARTESIAN_POINT('',(0.,-7.,0.));
#566=CARTESIAN_POINT('',(0.,0.,17.2));
#567=CARTESIAN_POINT('',(0.,0.,0.));
#568=MECHANICAL_DESIGN_GEOMETRIC_PRESENTATION_REPRESENTATION('',(#315,#316,
#317,#318,#319,#320),#569);
#569=(
GEOMETRIC_REPRESENTATION_CONTEXT(3)
GLOBAL_UNCERTAINTY_ASSIGNED_CONTEXT((#570))
GLOBAL_UNIT_ASSIGNED_CONTEXT((#576,#572,#571))
REPRESENTATION_CONTEXT('A76001','TOP_LEVEL_ASSEMBLY_PART')
);
#570=UNCERTAINTY_MEASURE_WITH_UNIT(LENGTH_MEASURE(0.0508),#576,
'DISTANCE_ACCURACY_VALUE','Maximum Tolerance applied to model');
#571=(
NAMED_UNIT(*)
SI_UNIT($,.STERADIAN.)
SOLID_ANGLE_UNIT()
);
#572=(
CONVERSION_BASED_UNIT('DEGREE',#574)
NAMED_UNIT(#573)
PLANE_ANGLE_UNIT()
);
#573=DIMENSIONAL_EXPONENTS(0.,0.,0.,0.,0.,0.,0.);
#574=PLANE_ANGLE_MEASURE_WITH_UNIT(PLANE_ANGLE_MEASURE(0.0174532925),#575);
#575=(
NAMED_UNIT(*)
PLANE_ANGLE_UNIT()
SI_UNIT($,.RADIAN.)
);
#576=(
LENGTH_UNIT()
NAMED_UNIT(*)
SI_UNIT(.MILLI.,.METRE.)
);
ENDSEC;
END-ISO-10303-21;
