ISO-10303-21;
HEADER;
/* Generated by software containing ST-Developer
 * from STEP Tools, Inc. (www.steptools.com) 
 */
/* OPTION: using custom schema-name function */

FILE_DESCRIPTION(
/* description */ (''),
/* implementation_level */ '2;1');

FILE_NAME(
/* name */ 'A75070.stp',
/* time_stamp */ '2017-10-23T16:42:24+05:00',
/* author */ (''),
/* organization */ (''),
/* preprocessor_version */ 'ST-DEVELOPER v16',
/* originating_system */ 'SIEMENS PLM Software NX 11.0',
/* authorisation */ '');

FILE_SCHEMA (('AUTOMOTIVE_DESIGN { 1 0 10303 214 3 1 1 1 }'));
ENDSEC;

DATA;
#10=CONSTRUCTIVE_GEOMETRY_REPRESENTATION_RELATIONSHIP(
'supplemental geometry','',#32,#11);
#11=CONSTRUCTIVE_GEOMETRY_REPRESENTATION('supplemental geometry',(#373,
#374,#375,#376),#603);
#12=PROPERTY_DEFINITION_REPRESENTATION(#16,#14);
#13=PROPERTY_DEFINITION_REPRESENTATION(#17,#15);
#14=REPRESENTATION('',(#18),#603);
#15=REPRESENTATION('',(#19),#603);
#16=PROPERTY_DEFINITION('pmi validation property','',#23);
#17=PROPERTY_DEFINITION('pmi validation property','',#23);
#18=VALUE_REPRESENTATION_ITEM('number of annotations',COUNT_MEASURE(0.));
#19=VALUE_REPRESENTATION_ITEM('number of views',COUNT_MEASURE(0.));
#20=SHAPE_REPRESENTATION_RELATIONSHIP('None',
'relationship between A75070-None and A75070-None',#32,#21);
#21=ADVANCED_BREP_SHAPE_REPRESENTATION('A75070-None',(#48,#49,#50),#603);
#22=SHAPE_DEFINITION_REPRESENTATION(#23,#32);
#23=PRODUCT_DEFINITION_SHAPE('','',#24);
#24=PRODUCT_DEFINITION(' ','',#26,#25);
#25=PRODUCT_DEFINITION_CONTEXT('part definition',#31,'design');
#26=PRODUCT_DEFINITION_FORMATION_WITH_SPECIFIED_SOURCE(' ',' ',#28,
 .NOT_KNOWN.);
#27=PRODUCT_RELATED_PRODUCT_CATEGORY('part','',(#28));
#28=PRODUCT('A75070','A75070',' ',(#29));
#29=PRODUCT_CONTEXT(' ',#31,'mechanical');
#30=APPLICATION_PROTOCOL_DEFINITION('international standard',
'automotive_design',2010,#31);
#31=APPLICATION_CONTEXT(
'core data for automotive mechanical design processes');
#32=SHAPE_REPRESENTATION('A75070-None',(#372),#603);
#33=SURFACE_STYLE_USAGE(.BOTH.,#36);
#34=SURFACE_STYLE_USAGE(.BOTH.,#37);
#35=SURFACE_STYLE_USAGE(.BOTH.,#38);
#36=SURFACE_SIDE_STYLE('',(#39));
#37=SURFACE_SIDE_STYLE('',(#40));
#38=SURFACE_SIDE_STYLE('',(#41));
#39=SURFACE_STYLE_FILL_AREA(#42);
#40=SURFACE_STYLE_FILL_AREA(#43);
#41=SURFACE_STYLE_FILL_AREA(#44);
#42=FILL_AREA_STYLE('',(#45));
#43=FILL_AREA_STYLE('',(#46));
#44=FILL_AREA_STYLE('',(#47));
#45=FILL_AREA_STYLE_COLOUR('',#366);
#46=FILL_AREA_STYLE_COLOUR('',#366);
#47=FILL_AREA_STYLE_COLOUR('',#367);
#48=MANIFOLD_SOLID_BREP('NOCUT',#51);
#49=MANIFOLD_SOLID_BREP('NOCUT',#52);
#50=MANIFOLD_SOLID_BREP('NOCUT',#53);
#51=CLOSED_SHELL('',(#88,#89,#90,#91,#92,#93,#94,#95,#96,#97,#98));
#52=CLOSED_SHELL('',(#99,#100,#101));
#53=CLOSED_SHELL('',(#102,#103,#104,#105,#106,#107));
#54=PLANE('',#383);
#55=PLANE('',#384);
#56=PLANE('',#385);
#57=PLANE('',#386);
#58=PLANE('',#387);
#59=PLANE('',#388);
#60=PLANE('',#389);
#61=PLANE('',#392);
#62=PLANE('',#393);
#63=PLANE('',#395);
#64=PLANE('',#398);
#65=PLANE('',#399);
#66=PLANE('',#403);
#67=PLANE('',#404);
#68=PLANE('',#405);
#69=PLANE('',#406);
#70=FACE_OUTER_BOUND('',#119,.T.);
#71=FACE_OUTER_BOUND('',#120,.T.);
#72=FACE_OUTER_BOUND('',#121,.T.);
#73=FACE_OUTER_BOUND('',#122,.T.);
#74=FACE_OUTER_BOUND('',#123,.T.);
#75=FACE_OUTER_BOUND('',#124,.T.);
#76=FACE_OUTER_BOUND('',#125,.T.);
#77=FACE_OUTER_BOUND('',#126,.T.);
#78=FACE_OUTER_BOUND('',#127,.T.);
#79=FACE_OUTER_BOUND('',#128,.T.);
#80=FACE_OUTER_BOUND('',#129,.T.);
#81=FACE_OUTER_BOUND('',#132,.T.);
#82=FACE_OUTER_BOUND('',#133,.T.);
#83=FACE_OUTER_BOUND('',#134,.T.);
#84=FACE_OUTER_BOUND('',#135,.T.);
#85=FACE_OUTER_BOUND('',#136,.T.);
#86=FACE_OUTER_BOUND('',#137,.T.);
#87=FACE_OUTER_BOUND('',#138,.T.);
#88=ADVANCED_FACE('',(#113,#114),#108,.T.);
#89=ADVANCED_FACE('',(#70),#54,.T.);
#90=ADVANCED_FACE('',(#71),#55,.F.);
#91=ADVANCED_FACE('',(#72),#56,.F.);
#92=ADVANCED_FACE('',(#73),#57,.F.);
#93=ADVANCED_FACE('',(#74),#58,.F.);
#94=ADVANCED_FACE('',(#75),#59,.F.);
#95=ADVANCED_FACE('',(#76),#60,.T.);
#96=ADVANCED_FACE('',(#77),#109,.F.);
#97=ADVANCED_FACE('',(#78),#61,.T.);
#98=ADVANCED_FACE('',(#79),#62,.T.);
#99=ADVANCED_FACE('',(#80),#63,.T.);
#100=ADVANCED_FACE('',(#115,#116),#110,.T.);
#101=ADVANCED_FACE('',(#81),#64,.F.);
#102=ADVANCED_FACE('',(#82),#65,.F.);
#103=ADVANCED_FACE('',(#83),#111,.T.);
#104=ADVANCED_FACE('',(#84),#66,.F.);
#105=ADVANCED_FACE('',(#85),#67,.F.);
#106=ADVANCED_FACE('',(#86),#68,.T.);
#107=ADVANCED_FACE('',(#87),#69,.F.);
#108=CYLINDRICAL_SURFACE('',#382,47.5);
#109=CYLINDRICAL_SURFACE('',#391,9.);
#110=CYLINDRICAL_SURFACE('',#397,23.);
#111=CYLINDRICAL_SURFACE('',#402,9.);
#112=B_SPLINE_CURVE_WITH_KNOTS('',3,(#525,#526,#527,#528,#529,#530,#531,
#532,#533,#534),.UNSPECIFIED.,.F.,.F.,(4,2,2,2,4),(0.,0.25,0.5,0.75,1.),
 .UNSPECIFIED.);
#113=FACE_BOUND('',#117,.T.);
#114=FACE_BOUND('',#118,.T.);
#115=FACE_BOUND('',#130,.T.);
#116=FACE_BOUND('',#131,.T.);
#117=EDGE_LOOP('',(#149,#150,#151,#152,#153,#154,#155,#156));
#118=EDGE_LOOP('',(#157,#158,#159,#160));
#119=EDGE_LOOP('',(#161,#162,#163,#164));
#120=EDGE_LOOP('',(#165,#166,#167,#168));
#121=EDGE_LOOP('',(#169,#170));
#122=EDGE_LOOP('',(#171,#172));
#123=EDGE_LOOP('',(#173,#174,#175,#176));
#124=EDGE_LOOP('',(#177,#178,#179,#180));
#125=EDGE_LOOP('',(#181,#182,#183,#184));
#126=EDGE_LOOP('',(#185,#186,#187,#188));
#127=EDGE_LOOP('',(#189,#190,#191,#192));
#128=EDGE_LOOP('',(#193,#194,#195,#196));
#129=EDGE_LOOP('',(#197));
#130=EDGE_LOOP('',(#198));
#131=EDGE_LOOP('',(#199));
#132=EDGE_LOOP('',(#200));
#133=EDGE_LOOP('',(#201,#202,#203,#204));
#134=EDGE_LOOP('',(#205,#206,#207,#208));
#135=EDGE_LOOP('',(#209,#210,#211,#212));
#136=EDGE_LOOP('',(#213,#214,#215,#216));
#137=EDGE_LOOP('',(#217,#218,#219,#220));
#138=EDGE_LOOP('',(#221,#222,#223,#224));
#139=CIRCLE('',#377,47.5);
#140=CIRCLE('',#378,47.5);
#141=CIRCLE('',#379,47.5);
#142=CIRCLE('',#380,47.5);
#143=CIRCLE('',#381,47.5);
#144=CIRCLE('',#390,9.);
#145=CIRCLE('',#394,23.);
#146=CIRCLE('',#396,23.);
#147=CIRCLE('',#400,9.);
#148=CIRCLE('',#401,9.);
#149=ORIENTED_EDGE('',*,*,#251,.T.);
#150=ORIENTED_EDGE('',*,*,#252,.T.);
#151=ORIENTED_EDGE('',*,*,#253,.F.);
#152=ORIENTED_EDGE('',*,*,#254,.T.);
#153=ORIENTED_EDGE('',*,*,#255,.F.);
#154=ORIENTED_EDGE('',*,*,#256,.T.);
#155=ORIENTED_EDGE('',*,*,#257,.T.);
#156=ORIENTED_EDGE('',*,*,#258,.T.);
#157=ORIENTED_EDGE('',*,*,#259,.T.);
#158=ORIENTED_EDGE('',*,*,#260,.T.);
#159=ORIENTED_EDGE('',*,*,#261,.F.);
#160=ORIENTED_EDGE('',*,*,#262,.T.);
#161=ORIENTED_EDGE('',*,*,#261,.T.);
#162=ORIENTED_EDGE('',*,*,#263,.T.);
#163=ORIENTED_EDGE('',*,*,#264,.T.);
#164=ORIENTED_EDGE('',*,*,#265,.T.);
#165=ORIENTED_EDGE('',*,*,#266,.F.);
#166=ORIENTED_EDGE('',*,*,#257,.F.);
#167=ORIENTED_EDGE('',*,*,#267,.T.);
#168=ORIENTED_EDGE('',*,*,#255,.T.);
#169=ORIENTED_EDGE('',*,*,#267,.F.);
#170=ORIENTED_EDGE('',*,*,#256,.F.);
#171=ORIENTED_EDGE('',*,*,#252,.F.);
#172=ORIENTED_EDGE('',*,*,#268,.T.);
#173=ORIENTED_EDGE('',*,*,#268,.F.);
#174=ORIENTED_EDGE('',*,*,#251,.F.);
#175=ORIENTED_EDGE('',*,*,#269,.T.);
#176=ORIENTED_EDGE('',*,*,#253,.T.);
#177=ORIENTED_EDGE('',*,*,#269,.F.);
#178=ORIENTED_EDGE('',*,*,#258,.F.);
#179=ORIENTED_EDGE('',*,*,#266,.T.);
#180=ORIENTED_EDGE('',*,*,#254,.F.);
#181=ORIENTED_EDGE('',*,*,#263,.F.);
#182=ORIENTED_EDGE('',*,*,#260,.F.);
#183=ORIENTED_EDGE('',*,*,#270,.F.);
#184=ORIENTED_EDGE('',*,*,#271,.T.);
#185=ORIENTED_EDGE('',*,*,#272,.T.);
#186=ORIENTED_EDGE('',*,*,#270,.T.);
#187=ORIENTED_EDGE('',*,*,#259,.F.);
#188=ORIENTED_EDGE('',*,*,#273,.F.);
#189=ORIENTED_EDGE('',*,*,#274,.T.);
#190=ORIENTED_EDGE('',*,*,#273,.T.);
#191=ORIENTED_EDGE('',*,*,#262,.F.);
#192=ORIENTED_EDGE('',*,*,#265,.F.);
#193=ORIENTED_EDGE('',*,*,#271,.F.);
#194=ORIENTED_EDGE('',*,*,#272,.F.);
#195=ORIENTED_EDGE('',*,*,#274,.F.);
#196=ORIENTED_EDGE('',*,*,#264,.F.);
#197=ORIENTED_EDGE('',*,*,#275,.T.);
#198=ORIENTED_EDGE('',*,*,#275,.F.);
#199=ORIENTED_EDGE('',*,*,#276,.F.);
#200=ORIENTED_EDGE('',*,*,#276,.T.);
#201=ORIENTED_EDGE('',*,*,#277,.T.);
#202=ORIENTED_EDGE('',*,*,#278,.F.);
#203=ORIENTED_EDGE('',*,*,#279,.F.);
#204=ORIENTED_EDGE('',*,*,#280,.T.);
#205=ORIENTED_EDGE('',*,*,#281,.T.);
#206=ORIENTED_EDGE('',*,*,#282,.F.);
#207=ORIENTED_EDGE('',*,*,#283,.F.);
#208=ORIENTED_EDGE('',*,*,#278,.T.);
#209=ORIENTED_EDGE('',*,*,#284,.T.);
#210=ORIENTED_EDGE('',*,*,#285,.F.);
#211=ORIENTED_EDGE('',*,*,#286,.F.);
#212=ORIENTED_EDGE('',*,*,#282,.T.);
#213=ORIENTED_EDGE('',*,*,#287,.T.);
#214=ORIENTED_EDGE('',*,*,#280,.F.);
#215=ORIENTED_EDGE('',*,*,#288,.F.);
#216=ORIENTED_EDGE('',*,*,#285,.T.);
#217=ORIENTED_EDGE('',*,*,#279,.T.);
#218=ORIENTED_EDGE('',*,*,#283,.T.);
#219=ORIENTED_EDGE('',*,*,#286,.T.);
#220=ORIENTED_EDGE('',*,*,#288,.T.);
#221=ORIENTED_EDGE('',*,*,#277,.F.);
#222=ORIENTED_EDGE('',*,*,#287,.F.);
#223=ORIENTED_EDGE('',*,*,#284,.F.);
#224=ORIENTED_EDGE('',*,*,#281,.F.);
#225=VERTEX_POINT('',#510);
#226=VERTEX_POINT('',#511);
#227=VERTEX_POINT('',#513);
#228=VERTEX_POINT('',#515);
#229=VERTEX_POINT('',#517);
#230=VERTEX_POINT('',#519);
#231=VERTEX_POINT('',#521);
#232=VERTEX_POINT('',#523);
#233=VERTEX_POINT('',#535);
#234=VERTEX_POINT('',#536);
#235=VERTEX_POINT('',#538);
#236=VERTEX_POINT('',#540);
#237=VERTEX_POINT('',#544);
#238=VERTEX_POINT('',#546);
#239=VERTEX_POINT('',#559);
#240=VERTEX_POINT('',#563);
#241=VERTEX_POINT('',#570);
#242=VERTEX_POINT('',#573);
#243=VERTEX_POINT('',#577);
#244=VERTEX_POINT('',#578);
#245=VERTEX_POINT('',#580);
#246=VERTEX_POINT('',#582);
#247=VERTEX_POINT('',#586);
#248=VERTEX_POINT('',#588);
#249=VERTEX_POINT('',#592);
#250=VERTEX_POINT('',#594);
#251=EDGE_CURVE('',#225,#226,#289,.T.);
#252=EDGE_CURVE('',#226,#227,#139,.T.);
#253=EDGE_CURVE('',#228,#227,#290,.T.);
#254=EDGE_CURVE('',#228,#229,#140,.T.);
#255=EDGE_CURVE('',#230,#229,#291,.T.);
#256=EDGE_CURVE('',#230,#231,#141,.T.);
#257=EDGE_CURVE('',#231,#232,#292,.T.);
#258=EDGE_CURVE('',#232,#225,#142,.T.);
#259=EDGE_CURVE('',#233,#234,#112,.T.);
#260=EDGE_CURVE('',#234,#235,#293,.T.);
#261=EDGE_CURVE('',#236,#235,#143,.T.);
#262=EDGE_CURVE('',#236,#233,#294,.T.);
#263=EDGE_CURVE('',#235,#237,#295,.T.);
#264=EDGE_CURVE('',#237,#238,#296,.T.);
#265=EDGE_CURVE('',#238,#236,#297,.T.);
#266=EDGE_CURVE('',#232,#229,#298,.T.);
#267=EDGE_CURVE('',#231,#230,#299,.T.);
#268=EDGE_CURVE('',#226,#227,#300,.T.);
#269=EDGE_CURVE('',#225,#228,#301,.T.);
#270=EDGE_CURVE('',#239,#234,#302,.T.);
#271=EDGE_CURVE('',#239,#237,#303,.T.);
#272=EDGE_CURVE('',#240,#239,#144,.T.);
#273=EDGE_CURVE('',#240,#233,#304,.T.);
#274=EDGE_CURVE('',#238,#240,#305,.T.);
#275=EDGE_CURVE('',#241,#241,#145,.T.);
#276=EDGE_CURVE('',#242,#242,#146,.T.);
#277=EDGE_CURVE('',#243,#244,#306,.T.);
#278=EDGE_CURVE('',#245,#244,#307,.T.);
#279=EDGE_CURVE('',#246,#245,#308,.T.);
#280=EDGE_CURVE('',#246,#243,#309,.T.);
#281=EDGE_CURVE('',#244,#247,#147,.T.);
#282=EDGE_CURVE('',#248,#247,#310,.T.);
#283=EDGE_CURVE('',#245,#248,#148,.T.);
#284=EDGE_CURVE('',#247,#249,#311,.T.);
#285=EDGE_CURVE('',#250,#249,#312,.T.);
#286=EDGE_CURVE('',#248,#250,#313,.T.);
#287=EDGE_CURVE('',#249,#243,#314,.T.);
#288=EDGE_CURVE('',#250,#246,#315,.T.);
#289=LINE('',#509,#316);
#290=LINE('',#514,#317);
#291=LINE('',#518,#318);
#292=LINE('',#522,#319);
#293=LINE('',#537,#320);
#294=LINE('',#541,#321);
#295=LINE('',#543,#322);
#296=LINE('',#545,#323);
#297=LINE('',#547,#324);
#298=LINE('',#549,#325);
#299=LINE('',#550,#326);
#300=LINE('',#553,#327);
#301=LINE('',#555,#328);
#302=LINE('',#558,#329);
#303=LINE('',#560,#330);
#304=LINE('',#564,#331);
#305=LINE('',#566,#332);
#306=LINE('',#576,#333);
#307=LINE('',#579,#334);
#308=LINE('',#581,#335);
#309=LINE('',#583,#336);
#310=LINE('',#587,#337);
#311=LINE('',#591,#338);
#312=LINE('',#593,#339);
#313=LINE('',#595,#340);
#314=LINE('',#597,#341);
#315=LINE('',#598,#342);
#316=VECTOR('',#417,1.);
#317=VECTOR('',#420,1.);
#318=VECTOR('',#423,1.);
#319=VECTOR('',#426,1.);
#320=VECTOR('',#429,1.);
#321=VECTOR('',#432,1.);
#322=VECTOR('',#435,1.);
#323=VECTOR('',#436,1.);
#324=VECTOR('',#437,1.);
#325=VECTOR('',#440,1.);
#326=VECTOR('',#441,1.);
#327=VECTOR('',#446,1.);
#328=VECTOR('',#449,1.);
#329=VECTOR('',#454,1.);
#330=VECTOR('',#455,1.);
#331=VECTOR('',#460,1.);
#332=VECTOR('',#463,1.);
#333=VECTOR('',#478,1.);
#334=VECTOR('',#479,1.);
#335=VECTOR('',#480,1.);
#336=VECTOR('',#481,1.);
#337=VECTOR('',#486,1.);
#338=VECTOR('',#491,1.);
#339=VECTOR('',#492,1.);
#340=VECTOR('',#493,1.);
#341=VECTOR('',#496,1.);
#342=VECTOR('',#497,1.);
#343=PRESENTATION_LAYER_ASSIGNMENT('1','Layer 1',(#373,#374,#375,#376,#49));
#344=PRESENTATION_LAYER_ASSIGNMENT('2','Layer 2',(#48));
#345=PRESENTATION_LAYER_ASSIGNMENT('4','Layer 4',(#50));
#346=STYLED_ITEM('',(#353),#373);
#347=STYLED_ITEM('',(#354),#374);
#348=STYLED_ITEM('',(#355),#375);
#349=STYLED_ITEM('',(#356),#376);
#350=STYLED_ITEM('',(#357),#48);
#351=STYLED_ITEM('',(#358),#49);
#352=STYLED_ITEM('',(#359),#50);
#353=PRESENTATION_STYLE_ASSIGNMENT((#360));
#354=PRESENTATION_STYLE_ASSIGNMENT((#361));
#355=PRESENTATION_STYLE_ASSIGNMENT((#362));
#356=PRESENTATION_STYLE_ASSIGNMENT((#363));
#357=PRESENTATION_STYLE_ASSIGNMENT((#33));
#358=PRESENTATION_STYLE_ASSIGNMENT((#34));
#359=PRESENTATION_STYLE_ASSIGNMENT((#35));
#360=CURVE_STYLE('',#368,POSITIVE_LENGTH_MEASURE(0.18),#364);
#361=CURVE_STYLE('',#369,POSITIVE_LENGTH_MEASURE(0.18),#364);
#362=CURVE_STYLE('',#370,POSITIVE_LENGTH_MEASURE(0.18),#365);
#363=CURVE_STYLE('',#371,POSITIVE_LENGTH_MEASURE(0.18),#365);
#364=COLOUR_RGB('Strong Stone',0.576470588235294,0.54508278019379,0.392156862745098);
#365=COLOUR_RGB('Medium Maroon',0.6,0.4,0.4);
#366=COLOUR_RGB('Medium Gray',0.490196078431373,0.490196078431373,0.490196078431373);
#367=COLOUR_RGB('Iron Gray',0.298023956664378,0.298023956664378,0.298023956664378);
#368=DRAUGHTING_PRE_DEFINED_CURVE_FONT('continuous');
#369=DRAUGHTING_PRE_DEFINED_CURVE_FONT('continuous');
#370=DRAUGHTING_PRE_DEFINED_CURVE_FONT('continuous');
#371=DRAUGHTING_PRE_DEFINED_CURVE_FONT('continuous');
#372=AXIS2_PLACEMENT_3D('',#504,#407,#408);
#373=AXIS2_PLACEMENT_3D('MCS',#505,#409,#410);
#374=AXIS2_PLACEMENT_3D('PCS',#506,#411,#412);
#375=AXIS2_PLACEMENT_3D('CSW 1',#507,#413,#414);
#376=AXIS2_PLACEMENT_3D('CSW 2',#508,#415,#416);
#377=AXIS2_PLACEMENT_3D('',#512,#418,#419);
#378=AXIS2_PLACEMENT_3D('',#516,#421,#422);
#379=AXIS2_PLACEMENT_3D('',#520,#424,#425);
#380=AXIS2_PLACEMENT_3D('',#524,#427,#428);
#381=AXIS2_PLACEMENT_3D('',#539,#430,#431);
#382=AXIS2_PLACEMENT_3D('',#542,#433,#434);
#383=AXIS2_PLACEMENT_3D('',#548,#438,#439);
#384=AXIS2_PLACEMENT_3D('',#551,#442,#443);
#385=AXIS2_PLACEMENT_3D('',#552,#444,#445);
#386=AXIS2_PLACEMENT_3D('',#554,#447,#448);
#387=AXIS2_PLACEMENT_3D('',#556,#450,#451);
#388=AXIS2_PLACEMENT_3D('',#557,#452,#453);
#389=AXIS2_PLACEMENT_3D('',#561,#456,#457);
#390=AXIS2_PLACEMENT_3D('',#562,#458,#459);
#391=AXIS2_PLACEMENT_3D('',#565,#461,#462);
#392=AXIS2_PLACEMENT_3D('',#567,#464,#465);
#393=AXIS2_PLACEMENT_3D('',#568,#466,#467);
#394=AXIS2_PLACEMENT_3D('',#569,#468,#469);
#395=AXIS2_PLACEMENT_3D('',#571,#470,#471);
#396=AXIS2_PLACEMENT_3D('',#572,#472,#473);
#397=AXIS2_PLACEMENT_3D('',#574,#474,#475);
#398=AXIS2_PLACEMENT_3D('',#575,#476,#477);
#399=AXIS2_PLACEMENT_3D('',#584,#482,#483);
#400=AXIS2_PLACEMENT_3D('',#585,#484,#485);
#401=AXIS2_PLACEMENT_3D('',#589,#487,#488);
#402=AXIS2_PLACEMENT_3D('',#590,#489,#490);
#403=AXIS2_PLACEMENT_3D('',#596,#494,#495);
#404=AXIS2_PLACEMENT_3D('',#599,#498,#499);
#405=AXIS2_PLACEMENT_3D('',#600,#500,#501);
#406=AXIS2_PLACEMENT_3D('',#601,#502,#503);
#407=DIRECTION('',(0.,0.,1.));
#408=DIRECTION('',(1.,0.,0.));
#409=DIRECTION('',(0.,0.,1.));
#410=DIRECTION('',(1.,0.,0.));
#411=DIRECTION('',(0.,0.,1.));
#412=DIRECTION('',(1.,0.,0.));
#413=DIRECTION('',(0.,0.,1.));
#414=DIRECTION('',(-1.,0.,0.));
#415=DIRECTION('',(0.,0.,1.));
#416=DIRECTION('',(1.,0.,0.));
#417=DIRECTION('',(0.,0.,-1.));
#418=DIRECTION('',(0.,0.,1.));
#419=DIRECTION('',(0.,1.,0.));
#420=DIRECTION('',(0.,0.,-1.));
#421=DIRECTION('',(0.,0.,1.));
#422=DIRECTION('',(-0.874951522202791,0.484210526315795,0.));
#423=DIRECTION('',(0.,0.,1.));
#424=DIRECTION('',(0.,0.,1.));
#425=DIRECTION('',(-0.874951522202791,-0.484210526315795,0.));
#426=DIRECTION('',(0.,0.,1.));
#427=DIRECTION('',(0.,0.,1.));
#428=DIRECTION('',(0.874951522202791,-0.484210526315795,0.));
#429=DIRECTION('',(0.,0.,1.));
#430=DIRECTION('',(0.,0.,1.));
#431=DIRECTION('',(-1.,0.,0.));
#432=DIRECTION('',(0.,0.,-1.));
#433=DIRECTION('',(0.,0.,1.));
#434=DIRECTION('',(-1.,0.,0.));
#435=DIRECTION('',(1.,0.,0.));
#436=DIRECTION('',(0.,-1.,0.));
#437=DIRECTION('',(-1.,0.,0.));
#438=DIRECTION('',(0.,0.,1.));
#439=DIRECTION('',(-1.,0.,0.));
#440=DIRECTION('',(-1.,0.,0.));
#441=DIRECTION('',(-1.,0.,0.));
#442=DIRECTION('',(0.,-1.,0.));
#443=DIRECTION('',(0.,0.,1.));
#444=DIRECTION('',(0.,0.,1.));
#445=DIRECTION('',(0.,1.,0.));
#446=DIRECTION('',(-1.,0.,0.));
#447=DIRECTION('',(0.,0.,1.));
#448=DIRECTION('',(0.,1.,0.));
#449=DIRECTION('',(-1.,0.,0.));
#450=DIRECTION('',(0.,1.,0.));
#451=DIRECTION('',(0.,0.,-1.));
#452=DIRECTION('',(0.,0.,1.));
#453=DIRECTION('',(0.,1.,0.));
#454=DIRECTION('',(-1.,0.,0.));
#455=DIRECTION('',(0.,0.,1.));
#456=DIRECTION('',(0.,-1.,0.));
#457=DIRECTION('',(-1.,0.,0.));
#458=DIRECTION('',(1.,0.,0.));
#459=DIRECTION('',(0.,1.22464679914735E-16,-1.));
#460=DIRECTION('',(-1.,0.,0.));
#461=DIRECTION('',(1.,0.,0.));
#462=DIRECTION('',(0.,0.,-1.));
#463=DIRECTION('',(0.,0.,-1.));
#464=DIRECTION('',(0.,1.,0.));
#465=DIRECTION('',(1.,0.,0.));
#466=DIRECTION('',(-1.,0.,0.));
#467=DIRECTION('',(0.,0.,1.));
#468=DIRECTION('',(0.,0.,1.));
#469=DIRECTION('',(0.,1.,0.));
#470=DIRECTION('',(0.,0.,1.));
#471=DIRECTION('',(0.,1.,0.));
#472=DIRECTION('',(0.,0.,-1.));
#473=DIRECTION('',(1.,0.,0.));
#474=DIRECTION('',(0.,0.,1.));
#475=DIRECTION('',(0.,1.,0.));
#476=DIRECTION('',(0.,0.,1.));
#477=DIRECTION('',(-1.,0.,0.));
#478=DIRECTION('',(0.,0.,-1.));
#479=DIRECTION('',(1.,0.,0.));
#480=DIRECTION('',(0.,0.,-1.));
#481=DIRECTION('',(1.,0.,0.));
#482=DIRECTION('',(0.,-1.,0.));
#483=DIRECTION('',(-1.,0.,0.));
#484=DIRECTION('',(-1.,0.,0.));
#485=DIRECTION('',(0.,1.22464679914735E-16,-1.));
#486=DIRECTION('',(1.,0.,0.));
#487=DIRECTION('',(-1.,0.,0.));
#488=DIRECTION('',(0.,1.22464679914735E-16,-1.));
#489=DIRECTION('',(1.,0.,0.));
#490=DIRECTION('',(0.,0.,-1.));
#491=DIRECTION('',(0.,0.,1.));
#492=DIRECTION('',(1.,0.,0.));
#493=DIRECTION('',(0.,0.,1.));
#494=DIRECTION('',(0.,1.,0.));
#495=DIRECTION('',(1.,0.,0.));
#496=DIRECTION('',(0.,1.,0.));
#497=DIRECTION('',(0.,1.,0.));
#498=DIRECTION('',(0.,0.,-1.));
#499=DIRECTION('',(-1.,0.,0.));
#500=DIRECTION('',(-1.,0.,0.));
#501=DIRECTION('',(0.,0.,1.));
#502=DIRECTION('',(-1.,0.,0.));
#503=DIRECTION('',(0.,0.,1.));
#504=CARTESIAN_POINT('',(0.,0.,0.));
#505=CARTESIAN_POINT('',(0.,0.,0.));
#506=CARTESIAN_POINT('',(0.,0.,0.));
#507=CARTESIAN_POINT('',(-11.5,23.,-39.));
#508=CARTESIAN_POINT('',(11.5,-23.,-39.));
#509=CARTESIAN_POINT('',(41.56019730463,23.,-93.));
#510=CARTESIAN_POINT('',(41.56019730463,23.,-39.));
#511=CARTESIAN_POINT('',(41.56019730463,23.,-93.));
#512=CARTESIAN_POINT('',(0.,0.,-93.));
#513=CARTESIAN_POINT('',(-41.56019730463,23.,-93.));
#514=CARTESIAN_POINT('',(-41.56019730463,23.,-93.));
#515=CARTESIAN_POINT('',(-41.56019730463,23.,-39.));
#516=CARTESIAN_POINT('',(0.,0.,-39.));
#517=CARTESIAN_POINT('',(-41.56019730463,-23.,-39.));
#518=CARTESIAN_POINT('',(-41.56019730463,-23.,-93.));
#519=CARTESIAN_POINT('',(-41.56019730463,-23.,-93.));
#520=CARTESIAN_POINT('',(0.,0.,-93.));
#521=CARTESIAN_POINT('',(41.56019730463,-23.,-93.));
#522=CARTESIAN_POINT('',(41.56019730463,-23.,-93.));
#523=CARTESIAN_POINT('',(41.56019730463,-23.,-39.));
#524=CARTESIAN_POINT('',(0.,0.,-39.));
#525=CARTESIAN_POINT('',(-46.639575469766,-9.,-14.975));
#526=CARTESIAN_POINT('',(-46.639575469766,-9.,-17.3587970459876));
#527=CARTESIAN_POINT('',(-46.8478673218143,-8.01998139111094,-19.6829785621551));
#528=CARTESIAN_POINT('',(-47.2956598414084,-4.70779505521093,-22.9950891125728));
#529=CARTESIAN_POINT('',(-47.4996438974975,-2.36054826994469,-23.9731205695499));
#530=CARTESIAN_POINT('',(-47.500355018228,2.34619514663723,-23.9768737078895));
#531=CARTESIAN_POINT('',(-47.2985168013936,4.6857577060006,-23.0153493701889));
#532=CARTESIAN_POINT('',(-46.8459226458672,8.0352690277602,-19.6694642852575));
#533=CARTESIAN_POINT('',(-46.639575469766,9.,-17.3588069962445));
#534=CARTESIAN_POINT('',(-46.639575469766,9.,-14.975));
#535=CARTESIAN_POINT('',(-46.639575469766,-8.99999999999999,-14.975));
#536=CARTESIAN_POINT('',(-46.639575469766,8.99999999999999,-14.975));
#537=CARTESIAN_POINT('',(-46.639575469766,8.99999999999999,-29.8));
#538=CARTESIAN_POINT('',(-46.639575469766,8.99999999999999,0.));
#539=CARTESIAN_POINT('',(0.,0.,0.));
#540=CARTESIAN_POINT('',(-46.639575469766,-8.99999999999997,0.));
#541=CARTESIAN_POINT('',(-46.639575469766,-8.99999999999997,-29.8));
#542=CARTESIAN_POINT('',(0.,0.,-29.8));
#543=CARTESIAN_POINT('',(0.,8.99999999999999,0.));
#544=CARTESIAN_POINT('',(-27.5,8.99999999999999,0.));
#545=CARTESIAN_POINT('',(-27.5,0.,0.));
#546=CARTESIAN_POINT('',(-27.5,-9.,0.));
#547=CARTESIAN_POINT('',(0.,-8.99999999999997,0.));
#548=CARTESIAN_POINT('',(0.,0.,0.));
#549=CARTESIAN_POINT('',(41.56019730463,-23.,-39.));
#550=CARTESIAN_POINT('',(41.56019730463,-23.,-93.));
#551=CARTESIAN_POINT('',(57.04694682413,-23.,-93.));
#552=CARTESIAN_POINT('',(1.138921523207E-14,0.,-93.));
#553=CARTESIAN_POINT('',(41.56019730463,23.,-93.));
#554=CARTESIAN_POINT('',(1.138921523207E-14,0.,-93.));
#555=CARTESIAN_POINT('',(41.56019730463,23.,-39.));
#556=CARTESIAN_POINT('',(57.04694682413,23.,-39.));
#557=CARTESIAN_POINT('',(57.04694682413,-23.,-39.));
#558=CARTESIAN_POINT('',(-47.5,8.99999999999999,-14.975));
#559=CARTESIAN_POINT('',(-27.5,8.99999999999999,-14.975));
#560=CARTESIAN_POINT('',(-27.5,8.99999999999999,0.0249999999999868));
#561=CARTESIAN_POINT('',(-47.5,8.99999999999999,0.0249999999999868));
#562=CARTESIAN_POINT('',(-27.5,0.,-14.975));
#563=CARTESIAN_POINT('',(-27.5,-8.99999999999999,-14.975));
#564=CARTESIAN_POINT('',(-47.5,-8.99999999999999,-14.975));
#565=CARTESIAN_POINT('',(-47.5,0.,-14.975));
#566=CARTESIAN_POINT('',(-27.5,-8.99999999999997,0.0249999999999868));
#567=CARTESIAN_POINT('',(-47.5,-8.99999999999997,0.0249999999999868));
#568=CARTESIAN_POINT('',(-27.5,0.,-14.975));
#569=CARTESIAN_POINT('',(0.,0.,50.));
#570=CARTESIAN_POINT('',(0.,23.,50.));
#571=CARTESIAN_POINT('',(0.,0.,50.));
#572=CARTESIAN_POINT('',(0.,0.,0.));
#573=CARTESIAN_POINT('',(23.,0.,0.));
#574=CARTESIAN_POINT('',(0.,0.,-29.8));
#575=CARTESIAN_POINT('',(0.,0.,0.));
#576=CARTESIAN_POINT('',(-27.5,8.99999999999999,0.0249999999999868));
#577=CARTESIAN_POINT('',(-27.5,8.99999999999999,9.025));
#578=CARTESIAN_POINT('',(-27.5,8.99999999999999,-14.975));
#579=CARTESIAN_POINT('',(-47.5,8.99999999999999,-14.975));
#580=CARTESIAN_POINT('',(-43.5,8.99999999999999,-14.975));
#581=CARTESIAN_POINT('',(-43.5,8.99999999999999,9.025));
#582=CARTESIAN_POINT('',(-43.5,8.99999999999999,9.025));
#583=CARTESIAN_POINT('',(-47.5,8.99999999999999,9.025));
#584=CARTESIAN_POINT('',(-47.5,8.99999999999999,0.0249999999999868));
#585=CARTESIAN_POINT('',(-27.5,0.,-14.975));
#586=CARTESIAN_POINT('',(-27.5,-8.99999999999999,-14.975));
#587=CARTESIAN_POINT('',(-47.5,-8.99999999999999,-14.975));
#588=CARTESIAN_POINT('',(-43.5,-8.99999999999999,-14.975));
#589=CARTESIAN_POINT('',(-43.5,0.,-14.975));
#590=CARTESIAN_POINT('',(-47.5,0.,-14.975));
#591=CARTESIAN_POINT('',(-27.5,-8.99999999999997,0.0249999999999868));
#592=CARTESIAN_POINT('',(-27.5,-8.99999999999997,9.02499999999988));
#593=CARTESIAN_POINT('',(-47.5,-8.99999999999997,9.02499999999988));
#594=CARTESIAN_POINT('',(-43.5,-8.99999999999997,9.02499999999988));
#595=CARTESIAN_POINT('',(-43.5,-8.99999999999997,-14.975));
#596=CARTESIAN_POINT('',(-47.5,-8.99999999999997,0.0249999999999868));
#597=CARTESIAN_POINT('',(-27.5,-8.99999999999997,9.02499999999988));
#598=CARTESIAN_POINT('',(-43.5,-8.99999999999997,9.02499999999988));
#599=CARTESIAN_POINT('',(-47.5,-8.99999999999997,9.02499999999988));
#600=CARTESIAN_POINT('',(-43.5,0.,-14.975));
#601=CARTESIAN_POINT('',(-27.5,0.,-14.975));
#602=MECHANICAL_DESIGN_GEOMETRIC_PRESENTATION_REPRESENTATION('',(#346,#347,
#348,#349,#350,#351,#352),#603);
#603=(
GEOMETRIC_REPRESENTATION_CONTEXT(3)
GLOBAL_UNCERTAINTY_ASSIGNED_CONTEXT((#604))
GLOBAL_UNIT_ASSIGNED_CONTEXT((#610,#606,#605))
REPRESENTATION_CONTEXT('A75070','TOP_LEVEL_ASSEMBLY_PART')
);
#604=UNCERTAINTY_MEASURE_WITH_UNIT(LENGTH_MEASURE(0.0508),#610,
'DISTANCE_ACCURACY_VALUE','Maximum Tolerance applied to model');
#605=(
NAMED_UNIT(*)
SI_UNIT($,.STERADIAN.)
SOLID_ANGLE_UNIT()
);
#606=(
CONVERSION_BASED_UNIT('DEGREE',#608)
NAMED_UNIT(#607)
PLANE_ANGLE_UNIT()
);
#607=DIMENSIONAL_EXPONENTS(0.,0.,0.,0.,0.,0.,0.);
#608=PLANE_ANGLE_MEASURE_WITH_UNIT(PLANE_ANGLE_MEASURE(0.0174532925),#609);
#609=(
NAMED_UNIT(*)
PLANE_ANGLE_UNIT()
SI_UNIT($,.RADIAN.)
);
#610=(
LENGTH_UNIT()
NAMED_UNIT(*)
SI_UNIT(.MILLI.,.METRE.)
);
ENDSEC;
END-ISO-10303-21;
