ISO-10303-21;
HEADER;
/* Generated by software containing ST-Developer
 * from STEP Tools, Inc. (www.steptools.com) 
 */
/* OPTION: using custom schema-name function */

FILE_DESCRIPTION(
/* description */ (''),
/* implementation_level */ '2;1');

FILE_NAME(
/* name */ 'A75060.stp',
/* time_stamp */ '2017-10-23T16:42:26+05:00',
/* author */ (''),
/* organization */ (''),
/* preprocessor_version */ 'ST-DEVELOPER v16',
/* originating_system */ 'SIEMENS PLM Software NX 11.0',
/* authorisation */ '');

FILE_SCHEMA (('AUTOMOTIVE_DESIGN { 1 0 10303 214 3 1 1 1 }'));
ENDSEC;

DATA;
#10=CONSTRUCTIVE_GEOMETRY_REPRESENTATION_RELATIONSHIP(
'supplemental geometry','',#32,#11);
#11=CONSTRUCTIVE_GEOMETRY_REPRESENTATION('supplemental geometry',(#372,
#373,#374,#375),#602);
#12=PROPERTY_DEFINITION_REPRESENTATION(#16,#14);
#13=PROPERTY_DEFINITION_REPRESENTATION(#17,#15);
#14=REPRESENTATION('',(#18),#602);
#15=REPRESENTATION('',(#19),#602);
#16=PROPERTY_DEFINITION('pmi validation property','',#23);
#17=PROPERTY_DEFINITION('pmi validation property','',#23);
#18=VALUE_REPRESENTATION_ITEM('number of annotations',COUNT_MEASURE(0.));
#19=VALUE_REPRESENTATION_ITEM('number of views',COUNT_MEASURE(0.));
#20=SHAPE_REPRESENTATION_RELATIONSHIP('None',
'relationship between A75060-None and A75060-None',#32,#21);
#21=ADVANCED_BREP_SHAPE_REPRESENTATION('A75060-None',(#48,#49,#50),#602);
#22=SHAPE_DEFINITION_REPRESENTATION(#23,#32);
#23=PRODUCT_DEFINITION_SHAPE('','',#24);
#24=PRODUCT_DEFINITION(' ','',#26,#25);
#25=PRODUCT_DEFINITION_CONTEXT('part definition',#31,'design');
#26=PRODUCT_DEFINITION_FORMATION_WITH_SPECIFIED_SOURCE(' ',' ',#28,
 .NOT_KNOWN.);
#27=PRODUCT_RELATED_PRODUCT_CATEGORY('part','',(#28));
#28=PRODUCT('A75060','A75060',' ',(#29));
#29=PRODUCT_CONTEXT(' ',#31,'mechanical');
#30=APPLICATION_PROTOCOL_DEFINITION('international standard',
'automotive_design',2010,#31);
#31=APPLICATION_CONTEXT(
'core data for automotive mechanical design processes');
#32=SHAPE_REPRESENTATION('A75060-None',(#371),#602);
#33=SURFACE_STYLE_USAGE(.BOTH.,#36);
#34=SURFACE_STYLE_USAGE(.BOTH.,#37);
#35=SURFACE_STYLE_USAGE(.BOTH.,#38);
#36=SURFACE_SIDE_STYLE('',(#39));
#37=SURFACE_SIDE_STYLE('',(#40));
#38=SURFACE_SIDE_STYLE('',(#41));
#39=SURFACE_STYLE_FILL_AREA(#42);
#40=SURFACE_STYLE_FILL_AREA(#43);
#41=SURFACE_STYLE_FILL_AREA(#44);
#42=FILL_AREA_STYLE('',(#45));
#43=FILL_AREA_STYLE('',(#46));
#44=FILL_AREA_STYLE('',(#47));
#45=FILL_AREA_STYLE_COLOUR('',#365);
#46=FILL_AREA_STYLE_COLOUR('',#365);
#47=FILL_AREA_STYLE_COLOUR('',#366);
#48=MANIFOLD_SOLID_BREP('NOCUT',#51);
#49=MANIFOLD_SOLID_BREP('NOCUT',#52);
#50=MANIFOLD_SOLID_BREP('NOCUT',#53);
#51=CLOSED_SHELL('',(#63,#64,#65,#66,#67,#68,#69,#70,#71,#72,#73));
#52=CLOSED_SHELL('',(#74,#75,#76));
#53=CLOSED_SHELL('',(#77,#78,#79,#80,#81,#82));
#54=CYLINDRICAL_SURFACE('',#382,35.);
#55=CYLINDRICAL_SURFACE('',#392,8.);
#56=CYLINDRICAL_SURFACE('',#396,18.);
#57=CYLINDRICAL_SURFACE('',#404,8.);
#58=B_SPLINE_CURVE_WITH_KNOTS('',3,(#535,#536,#537,#538,#539,#540,#541,
#542,#543,#544),.UNSPECIFIED.,.F.,.F.,(4,2,2,2,4),(0.,0.25,0.5,0.75,1.),
 .UNSPECIFIED.);
#59=FACE_BOUND('',#118,.T.);
#60=FACE_BOUND('',#119,.T.);
#61=FACE_BOUND('',#130,.T.);
#62=FACE_BOUND('',#131,.T.);
#63=ADVANCED_FACE('',(#99),#83,.T.);
#64=ADVANCED_FACE('',(#59,#60),#54,.T.);
#65=ADVANCED_FACE('',(#100),#84,.F.);
#66=ADVANCED_FACE('',(#101),#85,.F.);
#67=ADVANCED_FACE('',(#102),#86,.F.);
#68=ADVANCED_FACE('',(#103),#87,.F.);
#69=ADVANCED_FACE('',(#104),#88,.F.);
#70=ADVANCED_FACE('',(#105),#89,.T.);
#71=ADVANCED_FACE('',(#106),#90,.F.);
#72=ADVANCED_FACE('',(#107),#91,.F.);
#73=ADVANCED_FACE('',(#108),#55,.F.);
#74=ADVANCED_FACE('',(#109),#92,.T.);
#75=ADVANCED_FACE('',(#61,#62),#56,.T.);
#76=ADVANCED_FACE('',(#110),#93,.F.);
#77=ADVANCED_FACE('',(#111),#94,.F.);
#78=ADVANCED_FACE('',(#112),#95,.T.);
#79=ADVANCED_FACE('',(#113),#96,.T.);
#80=ADVANCED_FACE('',(#114),#97,.T.);
#81=ADVANCED_FACE('',(#115),#57,.T.);
#82=ADVANCED_FACE('',(#116),#98,.T.);
#83=PLANE('',#377);
#84=PLANE('',#383);
#85=PLANE('',#384);
#86=PLANE('',#385);
#87=PLANE('',#386);
#88=PLANE('',#387);
#89=PLANE('',#389);
#90=PLANE('',#390);
#91=PLANE('',#391);
#92=PLANE('',#394);
#93=PLANE('',#397);
#94=PLANE('',#399);
#95=PLANE('',#400);
#96=PLANE('',#401);
#97=PLANE('',#402);
#98=PLANE('',#405);
#99=FACE_OUTER_BOUND('',#117,.T.);
#100=FACE_OUTER_BOUND('',#120,.T.);
#101=FACE_OUTER_BOUND('',#121,.T.);
#102=FACE_OUTER_BOUND('',#122,.T.);
#103=FACE_OUTER_BOUND('',#123,.T.);
#104=FACE_OUTER_BOUND('',#124,.T.);
#105=FACE_OUTER_BOUND('',#125,.T.);
#106=FACE_OUTER_BOUND('',#126,.T.);
#107=FACE_OUTER_BOUND('',#127,.T.);
#108=FACE_OUTER_BOUND('',#128,.T.);
#109=FACE_OUTER_BOUND('',#129,.T.);
#110=FACE_OUTER_BOUND('',#132,.T.);
#111=FACE_OUTER_BOUND('',#133,.T.);
#112=FACE_OUTER_BOUND('',#134,.T.);
#113=FACE_OUTER_BOUND('',#135,.T.);
#114=FACE_OUTER_BOUND('',#136,.T.);
#115=FACE_OUTER_BOUND('',#137,.T.);
#116=FACE_OUTER_BOUND('',#138,.T.);
#117=EDGE_LOOP('',(#149,#150,#151,#152));
#118=EDGE_LOOP('',(#153,#154,#155,#156,#157,#158,#159,#160));
#119=EDGE_LOOP('',(#161,#162,#163,#164));
#120=EDGE_LOOP('',(#165,#166,#167,#168));
#121=EDGE_LOOP('',(#169,#170));
#122=EDGE_LOOP('',(#171,#172));
#123=EDGE_LOOP('',(#173,#174,#175,#176));
#124=EDGE_LOOP('',(#177,#178,#179,#180));
#125=EDGE_LOOP('',(#181,#182,#183,#184));
#126=EDGE_LOOP('',(#185,#186,#187,#188));
#127=EDGE_LOOP('',(#189,#190,#191,#192));
#128=EDGE_LOOP('',(#193,#194,#195,#196));
#129=EDGE_LOOP('',(#197));
#130=EDGE_LOOP('',(#198));
#131=EDGE_LOOP('',(#199));
#132=EDGE_LOOP('',(#200));
#133=EDGE_LOOP('',(#201,#202,#203,#204));
#134=EDGE_LOOP('',(#205,#206,#207,#208));
#135=EDGE_LOOP('',(#209,#210,#211,#212));
#136=EDGE_LOOP('',(#213,#214,#215,#216));
#137=EDGE_LOOP('',(#217,#218,#219,#220));
#138=EDGE_LOOP('',(#221,#222,#223,#224));
#139=CIRCLE('',#376,35.);
#140=CIRCLE('',#378,35.);
#141=CIRCLE('',#379,35.);
#142=CIRCLE('',#380,35.);
#143=CIRCLE('',#381,35.);
#144=CIRCLE('',#388,8.);
#145=CIRCLE('',#393,18.);
#146=CIRCLE('',#395,18.);
#147=CIRCLE('',#398,8.);
#148=CIRCLE('',#403,8.);
#149=ORIENTED_EDGE('',*,*,#251,.F.);
#150=ORIENTED_EDGE('',*,*,#252,.T.);
#151=ORIENTED_EDGE('',*,*,#253,.F.);
#152=ORIENTED_EDGE('',*,*,#254,.T.);
#153=ORIENTED_EDGE('',*,*,#255,.T.);
#154=ORIENTED_EDGE('',*,*,#256,.T.);
#155=ORIENTED_EDGE('',*,*,#257,.F.);
#156=ORIENTED_EDGE('',*,*,#258,.T.);
#157=ORIENTED_EDGE('',*,*,#259,.F.);
#158=ORIENTED_EDGE('',*,*,#260,.T.);
#159=ORIENTED_EDGE('',*,*,#261,.T.);
#160=ORIENTED_EDGE('',*,*,#262,.T.);
#161=ORIENTED_EDGE('',*,*,#252,.F.);
#162=ORIENTED_EDGE('',*,*,#263,.T.);
#163=ORIENTED_EDGE('',*,*,#264,.T.);
#164=ORIENTED_EDGE('',*,*,#265,.T.);
#165=ORIENTED_EDGE('',*,*,#266,.F.);
#166=ORIENTED_EDGE('',*,*,#261,.F.);
#167=ORIENTED_EDGE('',*,*,#267,.T.);
#168=ORIENTED_EDGE('',*,*,#259,.T.);
#169=ORIENTED_EDGE('',*,*,#267,.F.);
#170=ORIENTED_EDGE('',*,*,#260,.F.);
#171=ORIENTED_EDGE('',*,*,#256,.F.);
#172=ORIENTED_EDGE('',*,*,#268,.T.);
#173=ORIENTED_EDGE('',*,*,#268,.F.);
#174=ORIENTED_EDGE('',*,*,#255,.F.);
#175=ORIENTED_EDGE('',*,*,#269,.T.);
#176=ORIENTED_EDGE('',*,*,#257,.T.);
#177=ORIENTED_EDGE('',*,*,#269,.F.);
#178=ORIENTED_EDGE('',*,*,#262,.F.);
#179=ORIENTED_EDGE('',*,*,#266,.T.);
#180=ORIENTED_EDGE('',*,*,#258,.F.);
#181=ORIENTED_EDGE('',*,*,#270,.F.);
#182=ORIENTED_EDGE('',*,*,#271,.F.);
#183=ORIENTED_EDGE('',*,*,#272,.F.);
#184=ORIENTED_EDGE('',*,*,#254,.F.);
#185=ORIENTED_EDGE('',*,*,#253,.T.);
#186=ORIENTED_EDGE('',*,*,#265,.F.);
#187=ORIENTED_EDGE('',*,*,#273,.T.);
#188=ORIENTED_EDGE('',*,*,#270,.T.);
#189=ORIENTED_EDGE('',*,*,#251,.T.);
#190=ORIENTED_EDGE('',*,*,#272,.T.);
#191=ORIENTED_EDGE('',*,*,#274,.F.);
#192=ORIENTED_EDGE('',*,*,#263,.F.);
#193=ORIENTED_EDGE('',*,*,#274,.T.);
#194=ORIENTED_EDGE('',*,*,#271,.T.);
#195=ORIENTED_EDGE('',*,*,#273,.F.);
#196=ORIENTED_EDGE('',*,*,#264,.F.);
#197=ORIENTED_EDGE('',*,*,#275,.T.);
#198=ORIENTED_EDGE('',*,*,#275,.F.);
#199=ORIENTED_EDGE('',*,*,#276,.F.);
#200=ORIENTED_EDGE('',*,*,#276,.T.);
#201=ORIENTED_EDGE('',*,*,#277,.F.);
#202=ORIENTED_EDGE('',*,*,#278,.F.);
#203=ORIENTED_EDGE('',*,*,#279,.F.);
#204=ORIENTED_EDGE('',*,*,#280,.F.);
#205=ORIENTED_EDGE('',*,*,#281,.T.);
#206=ORIENTED_EDGE('',*,*,#282,.F.);
#207=ORIENTED_EDGE('',*,*,#283,.F.);
#208=ORIENTED_EDGE('',*,*,#277,.T.);
#209=ORIENTED_EDGE('',*,*,#278,.T.);
#210=ORIENTED_EDGE('',*,*,#283,.T.);
#211=ORIENTED_EDGE('',*,*,#284,.F.);
#212=ORIENTED_EDGE('',*,*,#285,.F.);
#213=ORIENTED_EDGE('',*,*,#279,.T.);
#214=ORIENTED_EDGE('',*,*,#285,.T.);
#215=ORIENTED_EDGE('',*,*,#286,.F.);
#216=ORIENTED_EDGE('',*,*,#287,.F.);
#217=ORIENTED_EDGE('',*,*,#287,.T.);
#218=ORIENTED_EDGE('',*,*,#288,.F.);
#219=ORIENTED_EDGE('',*,*,#281,.F.);
#220=ORIENTED_EDGE('',*,*,#280,.T.);
#221=ORIENTED_EDGE('',*,*,#288,.T.);
#222=ORIENTED_EDGE('',*,*,#286,.T.);
#223=ORIENTED_EDGE('',*,*,#284,.T.);
#224=ORIENTED_EDGE('',*,*,#282,.T.);
#225=VERTEX_POINT('',#509);
#226=VERTEX_POINT('',#510);
#227=VERTEX_POINT('',#512);
#228=VERTEX_POINT('',#514);
#229=VERTEX_POINT('',#518);
#230=VERTEX_POINT('',#519);
#231=VERTEX_POINT('',#521);
#232=VERTEX_POINT('',#523);
#233=VERTEX_POINT('',#525);
#234=VERTEX_POINT('',#527);
#235=VERTEX_POINT('',#529);
#236=VERTEX_POINT('',#531);
#237=VERTEX_POINT('',#534);
#238=VERTEX_POINT('',#545);
#239=VERTEX_POINT('',#558);
#240=VERTEX_POINT('',#560);
#241=VERTEX_POINT('',#569);
#242=VERTEX_POINT('',#572);
#243=VERTEX_POINT('',#576);
#244=VERTEX_POINT('',#577);
#245=VERTEX_POINT('',#579);
#246=VERTEX_POINT('',#581);
#247=VERTEX_POINT('',#585);
#248=VERTEX_POINT('',#587);
#249=VERTEX_POINT('',#591);
#250=VERTEX_POINT('',#595);
#251=EDGE_CURVE('',#225,#226,#289,.T.);
#252=EDGE_CURVE('',#225,#227,#139,.T.);
#253=EDGE_CURVE('',#228,#227,#290,.T.);
#254=EDGE_CURVE('',#228,#226,#291,.T.);
#255=EDGE_CURVE('',#229,#230,#292,.T.);
#256=EDGE_CURVE('',#230,#231,#140,.T.);
#257=EDGE_CURVE('',#232,#231,#293,.T.);
#258=EDGE_CURVE('',#232,#233,#141,.T.);
#259=EDGE_CURVE('',#234,#233,#294,.T.);
#260=EDGE_CURVE('',#234,#235,#142,.T.);
#261=EDGE_CURVE('',#235,#236,#295,.T.);
#262=EDGE_CURVE('',#236,#229,#143,.T.);
#263=EDGE_CURVE('',#225,#237,#296,.T.);
#264=EDGE_CURVE('',#237,#238,#58,.T.);
#265=EDGE_CURVE('',#238,#227,#297,.T.);
#266=EDGE_CURVE('',#236,#233,#298,.T.);
#267=EDGE_CURVE('',#235,#234,#299,.T.);
#268=EDGE_CURVE('',#230,#231,#300,.T.);
#269=EDGE_CURVE('',#229,#232,#301,.T.);
#270=EDGE_CURVE('',#239,#228,#302,.T.);
#271=EDGE_CURVE('',#240,#239,#144,.T.);
#272=EDGE_CURVE('',#226,#240,#303,.T.);
#273=EDGE_CURVE('',#238,#239,#304,.T.);
#274=EDGE_CURVE('',#237,#240,#305,.T.);
#275=EDGE_CURVE('',#241,#241,#145,.T.);
#276=EDGE_CURVE('',#242,#242,#146,.T.);
#277=EDGE_CURVE('',#243,#244,#306,.T.);
#278=EDGE_CURVE('',#245,#243,#307,.T.);
#279=EDGE_CURVE('',#246,#245,#308,.T.);
#280=EDGE_CURVE('',#244,#246,#147,.T.);
#281=EDGE_CURVE('',#244,#247,#309,.T.);
#282=EDGE_CURVE('',#248,#247,#310,.T.);
#283=EDGE_CURVE('',#243,#248,#311,.T.);
#284=EDGE_CURVE('',#249,#248,#312,.T.);
#285=EDGE_CURVE('',#245,#249,#313,.T.);
#286=EDGE_CURVE('',#250,#249,#314,.T.);
#287=EDGE_CURVE('',#246,#250,#315,.T.);
#288=EDGE_CURVE('',#247,#250,#148,.T.);
#289=LINE('',#508,#316);
#290=LINE('',#513,#317);
#291=LINE('',#515,#318);
#292=LINE('',#517,#319);
#293=LINE('',#522,#320);
#294=LINE('',#526,#321);
#295=LINE('',#530,#322);
#296=LINE('',#533,#323);
#297=LINE('',#546,#324);
#298=LINE('',#548,#325);
#299=LINE('',#549,#326);
#300=LINE('',#552,#327);
#301=LINE('',#554,#328);
#302=LINE('',#557,#329);
#303=LINE('',#561,#330);
#304=LINE('',#563,#331);
#305=LINE('',#565,#332);
#306=LINE('',#575,#333);
#307=LINE('',#578,#334);
#308=LINE('',#580,#335);
#309=LINE('',#584,#336);
#310=LINE('',#586,#337);
#311=LINE('',#588,#338);
#312=LINE('',#590,#339);
#313=LINE('',#592,#340);
#314=LINE('',#594,#341);
#315=LINE('',#596,#342);
#316=VECTOR('',#416,1.);
#317=VECTOR('',#419,1.);
#318=VECTOR('',#420,1.);
#319=VECTOR('',#423,1.);
#320=VECTOR('',#426,1.);
#321=VECTOR('',#429,1.);
#322=VECTOR('',#432,1.);
#323=VECTOR('',#435,1.);
#324=VECTOR('',#436,1.);
#325=VECTOR('',#439,1.);
#326=VECTOR('',#440,1.);
#327=VECTOR('',#445,1.);
#328=VECTOR('',#448,1.);
#329=VECTOR('',#453,1.);
#330=VECTOR('',#456,1.);
#331=VECTOR('',#459,1.);
#332=VECTOR('',#462,1.);
#333=VECTOR('',#477,1.);
#334=VECTOR('',#478,1.);
#335=VECTOR('',#479,1.);
#336=VECTOR('',#484,1.);
#337=VECTOR('',#485,1.);
#338=VECTOR('',#486,1.);
#339=VECTOR('',#489,1.);
#340=VECTOR('',#490,1.);
#341=VECTOR('',#493,1.);
#342=VECTOR('',#494,1.);
#343=PRESENTATION_LAYER_ASSIGNMENT('1','Layer 1',(#372,#373,#374,#375,#49,
#50));
#344=PRESENTATION_LAYER_ASSIGNMENT('2','Layer 2',(#48));
#345=STYLED_ITEM('',(#352),#372);
#346=STYLED_ITEM('',(#353),#373);
#347=STYLED_ITEM('',(#354),#374);
#348=STYLED_ITEM('',(#355),#375);
#349=STYLED_ITEM('',(#356),#48);
#350=STYLED_ITEM('',(#357),#49);
#351=STYLED_ITEM('',(#358),#50);
#352=PRESENTATION_STYLE_ASSIGNMENT((#359));
#353=PRESENTATION_STYLE_ASSIGNMENT((#360));
#354=PRESENTATION_STYLE_ASSIGNMENT((#361));
#355=PRESENTATION_STYLE_ASSIGNMENT((#362));
#356=PRESENTATION_STYLE_ASSIGNMENT((#33));
#357=PRESENTATION_STYLE_ASSIGNMENT((#34));
#358=PRESENTATION_STYLE_ASSIGNMENT((#35));
#359=CURVE_STYLE('',#367,POSITIVE_LENGTH_MEASURE(0.18),#363);
#360=CURVE_STYLE('',#368,POSITIVE_LENGTH_MEASURE(0.18),#363);
#361=CURVE_STYLE('',#369,POSITIVE_LENGTH_MEASURE(0.18),#364);
#362=CURVE_STYLE('',#370,POSITIVE_LENGTH_MEASURE(0.18),#364);
#363=COLOUR_RGB('Strong Stone',0.576470588235294,0.54508278019379,0.392156862745098);
#364=COLOUR_RGB('Medium Maroon',0.6,0.4,0.4);
#365=COLOUR_RGB('Medium Gray',0.490196078431373,0.490196078431373,0.490196078431373);
#366=COLOUR_RGB('Iron Gray',0.298023956664378,0.298023956664378,0.298023956664378);
#367=DRAUGHTING_PRE_DEFINED_CURVE_FONT('continuous');
#368=DRAUGHTING_PRE_DEFINED_CURVE_FONT('continuous');
#369=DRAUGHTING_PRE_DEFINED_CURVE_FONT('continuous');
#370=DRAUGHTING_PRE_DEFINED_CURVE_FONT('continuous');
#371=AXIS2_PLACEMENT_3D('',#503,#406,#407);
#372=AXIS2_PLACEMENT_3D('MCS',#504,#408,#409);
#373=AXIS2_PLACEMENT_3D('PCS',#505,#410,#411);
#374=AXIS2_PLACEMENT_3D('CSW 2',#506,#412,#413);
#375=AXIS2_PLACEMENT_3D('CSW 1',#507,#414,#415);
#376=AXIS2_PLACEMENT_3D('',#511,#417,#418);
#377=AXIS2_PLACEMENT_3D('',#516,#421,#422);
#378=AXIS2_PLACEMENT_3D('',#520,#424,#425);
#379=AXIS2_PLACEMENT_3D('',#524,#427,#428);
#380=AXIS2_PLACEMENT_3D('',#528,#430,#431);
#381=AXIS2_PLACEMENT_3D('',#532,#433,#434);
#382=AXIS2_PLACEMENT_3D('',#547,#437,#438);
#383=AXIS2_PLACEMENT_3D('',#550,#441,#442);
#384=AXIS2_PLACEMENT_3D('',#551,#443,#444);
#385=AXIS2_PLACEMENT_3D('',#553,#446,#447);
#386=AXIS2_PLACEMENT_3D('',#555,#449,#450);
#387=AXIS2_PLACEMENT_3D('',#556,#451,#452);
#388=AXIS2_PLACEMENT_3D('',#559,#454,#455);
#389=AXIS2_PLACEMENT_3D('',#562,#457,#458);
#390=AXIS2_PLACEMENT_3D('',#564,#460,#461);
#391=AXIS2_PLACEMENT_3D('',#566,#463,#464);
#392=AXIS2_PLACEMENT_3D('',#567,#465,#466);
#393=AXIS2_PLACEMENT_3D('',#568,#467,#468);
#394=AXIS2_PLACEMENT_3D('',#570,#469,#470);
#395=AXIS2_PLACEMENT_3D('',#571,#471,#472);
#396=AXIS2_PLACEMENT_3D('',#573,#473,#474);
#397=AXIS2_PLACEMENT_3D('',#574,#475,#476);
#398=AXIS2_PLACEMENT_3D('',#582,#480,#481);
#399=AXIS2_PLACEMENT_3D('',#583,#482,#483);
#400=AXIS2_PLACEMENT_3D('',#589,#487,#488);
#401=AXIS2_PLACEMENT_3D('',#593,#491,#492);
#402=AXIS2_PLACEMENT_3D('',#597,#495,#496);
#403=AXIS2_PLACEMENT_3D('',#598,#497,#498);
#404=AXIS2_PLACEMENT_3D('',#599,#499,#500);
#405=AXIS2_PLACEMENT_3D('',#600,#501,#502);
#406=DIRECTION('',(0.,0.,1.));
#407=DIRECTION('',(1.,0.,0.));
#408=DIRECTION('',(0.,0.,1.));
#409=DIRECTION('',(1.,0.,0.));
#410=DIRECTION('',(0.,0.,1.));
#411=DIRECTION('',(1.,0.,0.));
#412=DIRECTION('',(0.,0.,1.));
#413=DIRECTION('',(-1.,0.,0.));
#414=DIRECTION('',(0.,0.,1.));
#415=DIRECTION('',(1.,0.,0.));
#416=DIRECTION('',(1.,0.,0.));
#417=DIRECTION('',(0.,0.,1.));
#418=DIRECTION('',(-1.,0.,0.));
#419=DIRECTION('',(-1.,0.,0.));
#420=DIRECTION('',(0.,-1.,0.));
#421=DIRECTION('',(0.,0.,1.));
#422=DIRECTION('',(-1.,0.,0.));
#423=DIRECTION('',(0.,0.,-1.));
#424=DIRECTION('',(0.,0.,1.));
#425=DIRECTION('',(0.,1.,0.));
#426=DIRECTION('',(0.,0.,-1.));
#427=DIRECTION('',(0.,0.,1.));
#428=DIRECTION('',(-0.866025403784429,0.500000000000017,0.));
#429=DIRECTION('',(0.,0.,1.));
#430=DIRECTION('',(0.,0.,1.));
#431=DIRECTION('',(-0.866025403784429,-0.500000000000017,0.));
#432=DIRECTION('',(0.,0.,1.));
#433=DIRECTION('',(0.,0.,1.));
#434=DIRECTION('',(0.866025403784429,-0.500000000000017,0.));
#435=DIRECTION('',(0.,0.,-1.));
#436=DIRECTION('',(0.,0.,1.));
#437=DIRECTION('',(0.,0.,1.));
#438=DIRECTION('',(-1.,0.,0.));
#439=DIRECTION('',(-1.,0.,0.));
#440=DIRECTION('',(-1.,0.,0.));
#441=DIRECTION('',(0.,-1.,0.));
#442=DIRECTION('',(0.,0.,1.));
#443=DIRECTION('',(0.,0.,1.));
#444=DIRECTION('',(0.,1.,0.));
#445=DIRECTION('',(-1.,0.,0.));
#446=DIRECTION('',(0.,0.,1.));
#447=DIRECTION('',(0.,1.,0.));
#448=DIRECTION('',(-1.,0.,0.));
#449=DIRECTION('',(0.,1.,0.));
#450=DIRECTION('',(0.,0.,-1.));
#451=DIRECTION('',(0.,0.,1.));
#452=DIRECTION('',(0.,1.,0.));
#453=DIRECTION('',(0.,0.,1.));
#454=DIRECTION('',(1.,0.,0.));
#455=DIRECTION('',(0.,1.,0.));
#456=DIRECTION('',(0.,0.,-1.));
#457=DIRECTION('',(-1.,0.,0.));
#458=DIRECTION('',(0.,0.,-1.));
#459=DIRECTION('',(1.,0.,0.));
#460=DIRECTION('',(0.,1.,0.));
#461=DIRECTION('',(0.,0.,-1.));
#462=DIRECTION('',(1.,0.,0.));
#463=DIRECTION('',(0.,-1.,0.));
#464=DIRECTION('',(0.,0.,1.));
#465=DIRECTION('',(-1.,0.,0.));
#466=DIRECTION('',(0.,0.,-1.));
#467=DIRECTION('',(0.,0.,1.));
#468=DIRECTION('',(-1.,0.,0.));
#469=DIRECTION('',(0.,0.,1.));
#470=DIRECTION('',(-1.,0.,0.));
#471=DIRECTION('',(0.,0.,-1.));
#472=DIRECTION('',(0.,1.,0.));
#473=DIRECTION('',(0.,0.,1.));
#474=DIRECTION('',(-1.,0.,0.));
#475=DIRECTION('',(0.,0.,1.));
#476=DIRECTION('',(0.,-1.,0.));
#477=DIRECTION('',(0.,0.,-1.));
#478=DIRECTION('',(0.,1.,0.));
#479=DIRECTION('',(0.,0.,1.));
#480=DIRECTION('',(-1.,0.,0.));
#481=DIRECTION('',(0.,1.,0.));
#482=DIRECTION('',(-1.,0.,0.));
#483=DIRECTION('',(0.,0.,-1.));
#484=DIRECTION('',(-1.,0.,0.));
#485=DIRECTION('',(0.,0.,-1.));
#486=DIRECTION('',(-1.,0.,0.));
#487=DIRECTION('',(0.,1.,0.));
#488=DIRECTION('',(0.,0.,-1.));
#489=DIRECTION('',(0.,1.,0.));
#490=DIRECTION('',(-1.,0.,0.));
#491=DIRECTION('',(0.,0.,1.));
#492=DIRECTION('',(0.,1.,0.));
#493=DIRECTION('',(0.,0.,1.));
#494=DIRECTION('',(-1.,0.,0.));
#495=DIRECTION('',(0.,-1.,0.));
#496=DIRECTION('',(0.,0.,1.));
#497=DIRECTION('',(-1.,0.,0.));
#498=DIRECTION('',(0.,1.,0.));
#499=DIRECTION('',(-1.,0.,0.));
#500=DIRECTION('',(0.,0.,-1.));
#501=DIRECTION('',(-1.,0.,0.));
#502=DIRECTION('',(0.,0.,-1.));
#503=CARTESIAN_POINT('',(0.,0.,0.));
#504=CARTESIAN_POINT('',(0.,0.,0.));
#505=CARTESIAN_POINT('',(0.,0.,0.));
#506=CARTESIAN_POINT('',(-7.5,17.5,-37.));
#507=CARTESIAN_POINT('',(7.5,-17.5,-37.));
#508=CARTESIAN_POINT('',(0.,-8.,0.));
#509=CARTESIAN_POINT('',(-34.0734500748016,-8.,0.));
#510=CARTESIAN_POINT('',(-18.5,-8.,0.));
#511=CARTESIAN_POINT('',(0.,0.,0.));
#512=CARTESIAN_POINT('',(-34.0734500748016,8.,0.));
#513=CARTESIAN_POINT('',(0.,8.,0.));
#514=CARTESIAN_POINT('',(-18.5,8.,0.));
#515=CARTESIAN_POINT('',(-18.5,0.,0.));
#516=CARTESIAN_POINT('',(0.,0.,0.));
#517=CARTESIAN_POINT('',(30.31088913246,17.5,-79.));
#518=CARTESIAN_POINT('',(30.31088913246,17.5,-37.));
#519=CARTESIAN_POINT('',(30.31088913246,17.5,-79.));
#520=CARTESIAN_POINT('',(0.,0.,-79.));
#521=CARTESIAN_POINT('',(-30.31088913246,17.5,-79.));
#522=CARTESIAN_POINT('',(-30.31088913246,17.5,-79.));
#523=CARTESIAN_POINT('',(-30.31088913246,17.5,-37.));
#524=CARTESIAN_POINT('',(0.,0.,-37.));
#525=CARTESIAN_POINT('',(-30.31088913246,-17.5,-37.));
#526=CARTESIAN_POINT('',(-30.31088913246,-17.5,-79.));
#527=CARTESIAN_POINT('',(-30.31088913246,-17.5,-79.));
#528=CARTESIAN_POINT('',(0.,0.,-79.));
#529=CARTESIAN_POINT('',(30.31088913246,-17.5,-79.));
#530=CARTESIAN_POINT('',(30.31088913246,-17.5,-79.));
#531=CARTESIAN_POINT('',(30.31088913246,-17.5,-37.));
#532=CARTESIAN_POINT('',(0.,0.,-37.));
#533=CARTESIAN_POINT('',(-34.0734500748016,-8.,-29.3));
#534=CARTESIAN_POINT('',(-34.0734500748016,-8.,-15.5));
#535=CARTESIAN_POINT('',(-34.0734500748016,-8.,-15.5));
#536=CARTESIAN_POINT('',(-34.0734500748016,-8.,-17.621287499909));
#537=CARTESIAN_POINT('',(-34.2990277594132,-7.12716166836911,-19.6865378889984));
#538=CARTESIAN_POINT('',(-34.7806307629825,-4.18658123259857,-22.6271362078988));
#539=CARTESIAN_POINT('',(-34.9995905204768,-2.10119633860201,-23.4982085264673));
#540=CARTESIAN_POINT('',(-35.0004081459638,2.0875325794704,-23.5017856392094));
#541=CARTESIAN_POINT('',(-34.7833513451638,4.16925302680758,-22.6430692583242));
#542=CARTESIAN_POINT('',(-34.2971772988821,7.13917578798164,-19.6759164621741));
#543=CARTESIAN_POINT('',(-34.0734500748016,8.,-17.6213209123755));
#544=CARTESIAN_POINT('',(-34.0734500748016,8.,-15.5));
#545=CARTESIAN_POINT('',(-34.0734500748016,8.,-15.5));
#546=CARTESIAN_POINT('',(-34.0734500748016,8.,-29.3));
#547=CARTESIAN_POINT('',(0.,0.,-29.3));
#548=CARTESIAN_POINT('',(30.31088913246,-17.5,-37.));
#549=CARTESIAN_POINT('',(30.31088913246,-17.5,-79.));
#550=CARTESIAN_POINT('',(42.03459239673,-17.5,-79.));
#551=CARTESIAN_POINT('',(0.,0.,-79.));
#552=CARTESIAN_POINT('',(30.31088913246,17.5,-79.));
#553=CARTESIAN_POINT('',(0.,0.,-79.));
#554=CARTESIAN_POINT('',(30.31088913246,17.5,-37.));
#555=CARTESIAN_POINT('',(42.03459239673,17.5,-37.));
#556=CARTESIAN_POINT('',(42.03459239673,-17.5,-37.));
#557=CARTESIAN_POINT('',(-18.5,8.,7.));
#558=CARTESIAN_POINT('',(-18.5,8.,-15.5));
#559=CARTESIAN_POINT('',(-18.5,0.,-15.5));
#560=CARTESIAN_POINT('',(-18.5,-8.,-15.5));
#561=CARTESIAN_POINT('',(-18.5,-8.,-15.5));
#562=CARTESIAN_POINT('',(-18.5,0.,-12.));
#563=CARTESIAN_POINT('',(-18.5,8.,-15.5));
#564=CARTESIAN_POINT('',(-18.5,8.,8.));
#565=CARTESIAN_POINT('',(-18.5,-8.,-15.5));
#566=CARTESIAN_POINT('',(-18.5,-8.,-15.5));
#567=CARTESIAN_POINT('',(-18.5,0.,-15.5));
#568=CARTESIAN_POINT('',(0.,0.,40.));
#569=CARTESIAN_POINT('',(-18.,0.,40.));
#570=CARTESIAN_POINT('',(0.,0.,40.));
#571=CARTESIAN_POINT('',(0.,0.,0.));
#572=CARTESIAN_POINT('',(0.,18.,0.));
#573=CARTESIAN_POINT('',(0.,0.,-29.3));
#574=CARTESIAN_POINT('',(0.,0.,0.));
#575=CARTESIAN_POINT('',(-18.5,8.,7.));
#576=CARTESIAN_POINT('',(-18.5,8.,8.));
#577=CARTESIAN_POINT('',(-18.5,8.,-15.5));
#578=CARTESIAN_POINT('',(-18.5,-7.,8.));
#579=CARTESIAN_POINT('',(-18.5,-8.,8.));
#580=CARTESIAN_POINT('',(-18.5,-8.,-15.5));
#581=CARTESIAN_POINT('',(-18.5,-8.,-15.5));
#582=CARTESIAN_POINT('',(-18.5,0.,-15.5));
#583=CARTESIAN_POINT('',(-18.5,0.,-12.));
#584=CARTESIAN_POINT('',(-18.5,8.,-15.5));
#585=CARTESIAN_POINT('',(-30.,8.,-15.5));
#586=CARTESIAN_POINT('',(-30.,8.,7.));
#587=CARTESIAN_POINT('',(-30.,8.,8.));
#588=CARTESIAN_POINT('',(-18.5,8.,8.));
#589=CARTESIAN_POINT('',(-18.5,8.,8.));
#590=CARTESIAN_POINT('',(-30.,-7.,8.));
#591=CARTESIAN_POINT('',(-30.,-8.,8.));
#592=CARTESIAN_POINT('',(-18.5,-8.,8.));
#593=CARTESIAN_POINT('',(-18.5,-8.,8.));
#594=CARTESIAN_POINT('',(-30.,-8.,-15.5));
#595=CARTESIAN_POINT('',(-30.,-8.,-15.5));
#596=CARTESIAN_POINT('',(-18.5,-8.,-15.5));
#597=CARTESIAN_POINT('',(-18.5,-8.,-15.5));
#598=CARTESIAN_POINT('',(-30.,0.,-15.5));
#599=CARTESIAN_POINT('',(-18.5,0.,-15.5));
#600=CARTESIAN_POINT('',(-30.,0.,-12.));
#601=MECHANICAL_DESIGN_GEOMETRIC_PRESENTATION_REPRESENTATION('',(#345,#346,
#347,#348,#349,#350,#351),#602);
#602=(
GEOMETRIC_REPRESENTATION_CONTEXT(3)
GLOBAL_UNCERTAINTY_ASSIGNED_CONTEXT((#603))
GLOBAL_UNIT_ASSIGNED_CONTEXT((#609,#605,#604))
REPRESENTATION_CONTEXT('A75060','TOP_LEVEL_ASSEMBLY_PART')
);
#603=UNCERTAINTY_MEASURE_WITH_UNIT(LENGTH_MEASURE(0.0508),#609,
'DISTANCE_ACCURACY_VALUE','Maximum Tolerance applied to model');
#604=(
NAMED_UNIT(*)
SI_UNIT($,.STERADIAN.)
SOLID_ANGLE_UNIT()
);
#605=(
CONVERSION_BASED_UNIT('DEGREE',#607)
NAMED_UNIT(#606)
PLANE_ANGLE_UNIT()
);
#606=DIMENSIONAL_EXPONENTS(0.,0.,0.,0.,0.,0.,0.);
#607=PLANE_ANGLE_MEASURE_WITH_UNIT(PLANE_ANGLE_MEASURE(0.0174532925),#608);
#608=(
NAMED_UNIT(*)
PLANE_ANGLE_UNIT()
SI_UNIT($,.RADIAN.)
);
#609=(
LENGTH_UNIT()
NAMED_UNIT(*)
SI_UNIT(.MILLI.,.METRE.)
);
ENDSEC;
END-ISO-10303-21;
