ISO-10303-21;
HEADER;
/* Generated by software containing ST-Developer
 * from STEP Tools, Inc. (www.steptools.com) 
 */
/* OPTION: using custom schema-name function */

FILE_DESCRIPTION(
/* description */ (''),
/* implementation_level */ '2;1');

FILE_NAME(
/* name */ 'A75050.stp',
/* time_stamp */ '2017-10-26T08:10:26+06:00',
/* author */ (''),
/* organization */ (''),
/* preprocessor_version */ 'ST-DEVELOPER v16',
/* originating_system */ 'SIEMENS PLM Software NX 11.0',
/* authorisation */ '');

FILE_SCHEMA (('AUTOMOTIVE_DESIGN { 1 0 10303 214 3 1 1 1 }'));
ENDSEC;

DATA;
#10=CONSTRUCTIVE_GEOMETRY_REPRESENTATION_RELATIONSHIP(
'supplemental geometry','',#32,#11);
#11=CONSTRUCTIVE_GEOMETRY_REPRESENTATION('supplemental geometry',(#372,
#373,#374,#375),#602);
#12=PROPERTY_DEFINITION_REPRESENTATION(#16,#14);
#13=PROPERTY_DEFINITION_REPRESENTATION(#17,#15);
#14=REPRESENTATION('',(#18),#602);
#15=REPRESENTATION('',(#19),#602);
#16=PROPERTY_DEFINITION('pmi validation property','',#23);
#17=PROPERTY_DEFINITION('pmi validation property','',#23);
#18=VALUE_REPRESENTATION_ITEM('number of annotations',COUNT_MEASURE(0.));
#19=VALUE_REPRESENTATION_ITEM('number of views',COUNT_MEASURE(0.));
#20=SHAPE_REPRESENTATION_RELATIONSHIP('None',
'relationship between A75050-None and A75050-None',#32,#21);
#21=ADVANCED_BREP_SHAPE_REPRESENTATION('A75050-None',(#48,#49,#50),#602);
#22=SHAPE_DEFINITION_REPRESENTATION(#23,#32);
#23=PRODUCT_DEFINITION_SHAPE('','',#24);
#24=PRODUCT_DEFINITION(' ','',#26,#25);
#25=PRODUCT_DEFINITION_CONTEXT('part definition',#31,'design');
#26=PRODUCT_DEFINITION_FORMATION_WITH_SPECIFIED_SOURCE(' ',' ',#28,
 .NOT_KNOWN.);
#27=PRODUCT_RELATED_PRODUCT_CATEGORY('part','',(#28));
#28=PRODUCT('A75050','A75050',' ',(#29));
#29=PRODUCT_CONTEXT(' ',#31,'mechanical');
#30=APPLICATION_PROTOCOL_DEFINITION('international standard',
'automotive_design',2010,#31);
#31=APPLICATION_CONTEXT(
'core data for automotive mechanical design processes');
#32=SHAPE_REPRESENTATION('A75050-None',(#371),#602);
#33=SURFACE_STYLE_USAGE(.BOTH.,#36);
#34=SURFACE_STYLE_USAGE(.BOTH.,#37);
#35=SURFACE_STYLE_USAGE(.BOTH.,#38);
#36=SURFACE_SIDE_STYLE('',(#39));
#37=SURFACE_SIDE_STYLE('',(#40));
#38=SURFACE_SIDE_STYLE('',(#41));
#39=SURFACE_STYLE_FILL_AREA(#42);
#40=SURFACE_STYLE_FILL_AREA(#43);
#41=SURFACE_STYLE_FILL_AREA(#44);
#42=FILL_AREA_STYLE('',(#45));
#43=FILL_AREA_STYLE('',(#46));
#44=FILL_AREA_STYLE('',(#47));
#45=FILL_AREA_STYLE_COLOUR('',#365);
#46=FILL_AREA_STYLE_COLOUR('',#365);
#47=FILL_AREA_STYLE_COLOUR('',#366);
#48=MANIFOLD_SOLID_BREP('NOCUT',#51);
#49=MANIFOLD_SOLID_BREP('NOCUT',#52);
#50=MANIFOLD_SOLID_BREP('NOCUT',#53);
#51=CLOSED_SHELL('',(#88,#89,#90,#91,#92,#93,#94,#95,#96,#97,#98));
#52=CLOSED_SHELL('',(#99,#100,#101));
#53=CLOSED_SHELL('',(#102,#103,#104,#105,#106,#107));
#54=PLANE('',#382);
#55=PLANE('',#383);
#56=PLANE('',#384);
#57=PLANE('',#385);
#58=PLANE('',#386);
#59=PLANE('',#387);
#60=PLANE('',#388);
#61=PLANE('',#389);
#62=PLANE('',#392);
#63=PLANE('',#394);
#64=PLANE('',#397);
#65=PLANE('',#399);
#66=PLANE('',#400);
#67=PLANE('',#401);
#68=PLANE('',#402);
#69=PLANE('',#405);
#70=FACE_OUTER_BOUND('',#119,.T.);
#71=FACE_OUTER_BOUND('',#120,.T.);
#72=FACE_OUTER_BOUND('',#121,.T.);
#73=FACE_OUTER_BOUND('',#122,.T.);
#74=FACE_OUTER_BOUND('',#123,.T.);
#75=FACE_OUTER_BOUND('',#124,.T.);
#76=FACE_OUTER_BOUND('',#125,.T.);
#77=FACE_OUTER_BOUND('',#126,.T.);
#78=FACE_OUTER_BOUND('',#127,.T.);
#79=FACE_OUTER_BOUND('',#128,.T.);
#80=FACE_OUTER_BOUND('',#129,.T.);
#81=FACE_OUTER_BOUND('',#132,.T.);
#82=FACE_OUTER_BOUND('',#133,.T.);
#83=FACE_OUTER_BOUND('',#134,.T.);
#84=FACE_OUTER_BOUND('',#135,.T.);
#85=FACE_OUTER_BOUND('',#136,.T.);
#86=FACE_OUTER_BOUND('',#137,.T.);
#87=FACE_OUTER_BOUND('',#138,.T.);
#88=ADVANCED_FACE('',(#113,#114),#108,.T.);
#89=ADVANCED_FACE('',(#70),#54,.T.);
#90=ADVANCED_FACE('',(#71),#55,.F.);
#91=ADVANCED_FACE('',(#72),#56,.F.);
#92=ADVANCED_FACE('',(#73),#57,.F.);
#93=ADVANCED_FACE('',(#74),#58,.F.);
#94=ADVANCED_FACE('',(#75),#59,.F.);
#95=ADVANCED_FACE('',(#76),#60,.T.);
#96=ADVANCED_FACE('',(#77),#61,.T.);
#97=ADVANCED_FACE('',(#78),#109,.F.);
#98=ADVANCED_FACE('',(#79),#62,.T.);
#99=ADVANCED_FACE('',(#80),#63,.T.);
#100=ADVANCED_FACE('',(#115,#116),#110,.T.);
#101=ADVANCED_FACE('',(#81),#64,.F.);
#102=ADVANCED_FACE('',(#82),#65,.F.);
#103=ADVANCED_FACE('',(#83),#66,.T.);
#104=ADVANCED_FACE('',(#84),#67,.T.);
#105=ADVANCED_FACE('',(#85),#68,.T.);
#106=ADVANCED_FACE('',(#86),#111,.T.);
#107=ADVANCED_FACE('',(#87),#69,.T.);
#108=CYLINDRICAL_SURFACE('',#381,27.);
#109=CYLINDRICAL_SURFACE('',#391,6.);
#110=CYLINDRICAL_SURFACE('',#396,14.);
#111=CYLINDRICAL_SURFACE('',#404,6.);
#112=B_SPLINE_CURVE_WITH_KNOTS('',3,(#524,#525,#526,#527,#528,#529,#530,
#531,#532,#533),.UNSPECIFIED.,.F.,.F.,(4,2,2,2,4),(0.,0.25,0.5,0.75,1.),
 .UNSPECIFIED.);
#113=FACE_BOUND('',#117,.T.);
#114=FACE_BOUND('',#118,.T.);
#115=FACE_BOUND('',#130,.T.);
#116=FACE_BOUND('',#131,.T.);
#117=EDGE_LOOP('',(#149,#150,#151,#152,#153,#154,#155,#156));
#118=EDGE_LOOP('',(#157,#158,#159,#160));
#119=EDGE_LOOP('',(#161,#162,#163,#164));
#120=EDGE_LOOP('',(#165,#166,#167,#168));
#121=EDGE_LOOP('',(#169,#170));
#122=EDGE_LOOP('',(#171,#172));
#123=EDGE_LOOP('',(#173,#174,#175,#176));
#124=EDGE_LOOP('',(#177,#178,#179,#180));
#125=EDGE_LOOP('',(#181,#182,#183,#184));
#126=EDGE_LOOP('',(#185,#186,#187,#188));
#127=EDGE_LOOP('',(#189,#190,#191,#192));
#128=EDGE_LOOP('',(#193,#194,#195,#196));
#129=EDGE_LOOP('',(#197));
#130=EDGE_LOOP('',(#198));
#131=EDGE_LOOP('',(#199));
#132=EDGE_LOOP('',(#200));
#133=EDGE_LOOP('',(#201,#202,#203,#204));
#134=EDGE_LOOP('',(#205,#206,#207,#208));
#135=EDGE_LOOP('',(#209,#210,#211,#212));
#136=EDGE_LOOP('',(#213,#214,#215,#216));
#137=EDGE_LOOP('',(#217,#218,#219,#220));
#138=EDGE_LOOP('',(#221,#222,#223,#224));
#139=CIRCLE('',#376,27.);
#140=CIRCLE('',#377,27.);
#141=CIRCLE('',#378,27.);
#142=CIRCLE('',#379,27.);
#143=CIRCLE('',#380,27.);
#144=CIRCLE('',#390,6.);
#145=CIRCLE('',#393,14.);
#146=CIRCLE('',#395,14.);
#147=CIRCLE('',#398,6.);
#148=CIRCLE('',#403,6.);
#149=ORIENTED_EDGE('',*,*,#251,.T.);
#150=ORIENTED_EDGE('',*,*,#252,.T.);
#151=ORIENTED_EDGE('',*,*,#253,.F.);
#152=ORIENTED_EDGE('',*,*,#254,.T.);
#153=ORIENTED_EDGE('',*,*,#255,.F.);
#154=ORIENTED_EDGE('',*,*,#256,.T.);
#155=ORIENTED_EDGE('',*,*,#257,.T.);
#156=ORIENTED_EDGE('',*,*,#258,.T.);
#157=ORIENTED_EDGE('',*,*,#259,.T.);
#158=ORIENTED_EDGE('',*,*,#260,.T.);
#159=ORIENTED_EDGE('',*,*,#261,.F.);
#160=ORIENTED_EDGE('',*,*,#262,.T.);
#161=ORIENTED_EDGE('',*,*,#261,.T.);
#162=ORIENTED_EDGE('',*,*,#263,.T.);
#163=ORIENTED_EDGE('',*,*,#264,.T.);
#164=ORIENTED_EDGE('',*,*,#265,.T.);
#165=ORIENTED_EDGE('',*,*,#266,.F.);
#166=ORIENTED_EDGE('',*,*,#257,.F.);
#167=ORIENTED_EDGE('',*,*,#267,.T.);
#168=ORIENTED_EDGE('',*,*,#255,.T.);
#169=ORIENTED_EDGE('',*,*,#267,.F.);
#170=ORIENTED_EDGE('',*,*,#256,.F.);
#171=ORIENTED_EDGE('',*,*,#252,.F.);
#172=ORIENTED_EDGE('',*,*,#268,.T.);
#173=ORIENTED_EDGE('',*,*,#268,.F.);
#174=ORIENTED_EDGE('',*,*,#251,.F.);
#175=ORIENTED_EDGE('',*,*,#269,.T.);
#176=ORIENTED_EDGE('',*,*,#253,.T.);
#177=ORIENTED_EDGE('',*,*,#269,.F.);
#178=ORIENTED_EDGE('',*,*,#258,.F.);
#179=ORIENTED_EDGE('',*,*,#266,.T.);
#180=ORIENTED_EDGE('',*,*,#254,.F.);
#181=ORIENTED_EDGE('',*,*,#270,.F.);
#182=ORIENTED_EDGE('',*,*,#271,.T.);
#183=ORIENTED_EDGE('',*,*,#263,.F.);
#184=ORIENTED_EDGE('',*,*,#260,.F.);
#185=ORIENTED_EDGE('',*,*,#265,.F.);
#186=ORIENTED_EDGE('',*,*,#272,.T.);
#187=ORIENTED_EDGE('',*,*,#273,.T.);
#188=ORIENTED_EDGE('',*,*,#262,.F.);
#189=ORIENTED_EDGE('',*,*,#273,.F.);
#190=ORIENTED_EDGE('',*,*,#274,.T.);
#191=ORIENTED_EDGE('',*,*,#270,.T.);
#192=ORIENTED_EDGE('',*,*,#259,.F.);
#193=ORIENTED_EDGE('',*,*,#271,.F.);
#194=ORIENTED_EDGE('',*,*,#274,.F.);
#195=ORIENTED_EDGE('',*,*,#272,.F.);
#196=ORIENTED_EDGE('',*,*,#264,.F.);
#197=ORIENTED_EDGE('',*,*,#275,.T.);
#198=ORIENTED_EDGE('',*,*,#275,.F.);
#199=ORIENTED_EDGE('',*,*,#276,.F.);
#200=ORIENTED_EDGE('',*,*,#276,.T.);
#201=ORIENTED_EDGE('',*,*,#277,.F.);
#202=ORIENTED_EDGE('',*,*,#278,.F.);
#203=ORIENTED_EDGE('',*,*,#279,.F.);
#204=ORIENTED_EDGE('',*,*,#280,.F.);
#205=ORIENTED_EDGE('',*,*,#281,.T.);
#206=ORIENTED_EDGE('',*,*,#282,.F.);
#207=ORIENTED_EDGE('',*,*,#283,.F.);
#208=ORIENTED_EDGE('',*,*,#277,.T.);
#209=ORIENTED_EDGE('',*,*,#278,.T.);
#210=ORIENTED_EDGE('',*,*,#283,.T.);
#211=ORIENTED_EDGE('',*,*,#284,.F.);
#212=ORIENTED_EDGE('',*,*,#285,.F.);
#213=ORIENTED_EDGE('',*,*,#279,.T.);
#214=ORIENTED_EDGE('',*,*,#285,.T.);
#215=ORIENTED_EDGE('',*,*,#286,.F.);
#216=ORIENTED_EDGE('',*,*,#287,.F.);
#217=ORIENTED_EDGE('',*,*,#287,.T.);
#218=ORIENTED_EDGE('',*,*,#288,.F.);
#219=ORIENTED_EDGE('',*,*,#281,.F.);
#220=ORIENTED_EDGE('',*,*,#280,.T.);
#221=ORIENTED_EDGE('',*,*,#288,.T.);
#222=ORIENTED_EDGE('',*,*,#286,.T.);
#223=ORIENTED_EDGE('',*,*,#284,.T.);
#224=ORIENTED_EDGE('',*,*,#282,.T.);
#225=VERTEX_POINT('',#509);
#226=VERTEX_POINT('',#510);
#227=VERTEX_POINT('',#512);
#228=VERTEX_POINT('',#514);
#229=VERTEX_POINT('',#516);
#230=VERTEX_POINT('',#518);
#231=VERTEX_POINT('',#520);
#232=VERTEX_POINT('',#522);
#233=VERTEX_POINT('',#534);
#234=VERTEX_POINT('',#535);
#235=VERTEX_POINT('',#537);
#236=VERTEX_POINT('',#539);
#237=VERTEX_POINT('',#543);
#238=VERTEX_POINT('',#545);
#239=VERTEX_POINT('',#558);
#240=VERTEX_POINT('',#562);
#241=VERTEX_POINT('',#569);
#242=VERTEX_POINT('',#572);
#243=VERTEX_POINT('',#576);
#244=VERTEX_POINT('',#577);
#245=VERTEX_POINT('',#579);
#246=VERTEX_POINT('',#581);
#247=VERTEX_POINT('',#585);
#248=VERTEX_POINT('',#587);
#249=VERTEX_POINT('',#591);
#250=VERTEX_POINT('',#595);
#251=EDGE_CURVE('',#225,#226,#289,.T.);
#252=EDGE_CURVE('',#226,#227,#139,.T.);
#253=EDGE_CURVE('',#228,#227,#290,.T.);
#254=EDGE_CURVE('',#228,#229,#140,.T.);
#255=EDGE_CURVE('',#230,#229,#291,.T.);
#256=EDGE_CURVE('',#230,#231,#141,.T.);
#257=EDGE_CURVE('',#231,#232,#292,.T.);
#258=EDGE_CURVE('',#232,#225,#142,.T.);
#259=EDGE_CURVE('',#233,#234,#112,.T.);
#260=EDGE_CURVE('',#234,#235,#293,.T.);
#261=EDGE_CURVE('',#236,#235,#143,.T.);
#262=EDGE_CURVE('',#236,#233,#294,.T.);
#263=EDGE_CURVE('',#235,#237,#295,.T.);
#264=EDGE_CURVE('',#237,#238,#296,.T.);
#265=EDGE_CURVE('',#238,#236,#297,.T.);
#266=EDGE_CURVE('',#232,#229,#298,.T.);
#267=EDGE_CURVE('',#231,#230,#299,.T.);
#268=EDGE_CURVE('',#226,#227,#300,.T.);
#269=EDGE_CURVE('',#225,#228,#301,.T.);
#270=EDGE_CURVE('',#239,#234,#302,.T.);
#271=EDGE_CURVE('',#239,#237,#303,.T.);
#272=EDGE_CURVE('',#238,#240,#304,.T.);
#273=EDGE_CURVE('',#240,#233,#305,.T.);
#274=EDGE_CURVE('',#240,#239,#144,.T.);
#275=EDGE_CURVE('',#241,#241,#145,.T.);
#276=EDGE_CURVE('',#242,#242,#146,.T.);
#277=EDGE_CURVE('',#243,#244,#306,.T.);
#278=EDGE_CURVE('',#245,#243,#307,.T.);
#279=EDGE_CURVE('',#246,#245,#308,.T.);
#280=EDGE_CURVE('',#244,#246,#147,.T.);
#281=EDGE_CURVE('',#244,#247,#309,.T.);
#282=EDGE_CURVE('',#248,#247,#310,.T.);
#283=EDGE_CURVE('',#243,#248,#311,.T.);
#284=EDGE_CURVE('',#249,#248,#312,.T.);
#285=EDGE_CURVE('',#245,#249,#313,.T.);
#286=EDGE_CURVE('',#250,#249,#314,.T.);
#287=EDGE_CURVE('',#246,#250,#315,.T.);
#288=EDGE_CURVE('',#247,#250,#148,.T.);
#289=LINE('',#508,#316);
#290=LINE('',#513,#317);
#291=LINE('',#517,#318);
#292=LINE('',#521,#319);
#293=LINE('',#536,#320);
#294=LINE('',#540,#321);
#295=LINE('',#542,#322);
#296=LINE('',#544,#323);
#297=LINE('',#546,#324);
#298=LINE('',#548,#325);
#299=LINE('',#549,#326);
#300=LINE('',#552,#327);
#301=LINE('',#554,#328);
#302=LINE('',#557,#329);
#303=LINE('',#559,#330);
#304=LINE('',#561,#331);
#305=LINE('',#563,#332);
#306=LINE('',#575,#333);
#307=LINE('',#578,#334);
#308=LINE('',#580,#335);
#309=LINE('',#584,#336);
#310=LINE('',#586,#337);
#311=LINE('',#588,#338);
#312=LINE('',#590,#339);
#313=LINE('',#592,#340);
#314=LINE('',#594,#341);
#315=LINE('',#596,#342);
#316=VECTOR('',#416,1.);
#317=VECTOR('',#419,1.);
#318=VECTOR('',#422,1.);
#319=VECTOR('',#425,1.);
#320=VECTOR('',#428,1.);
#321=VECTOR('',#431,1.);
#322=VECTOR('',#434,1.);
#323=VECTOR('',#435,1.);
#324=VECTOR('',#436,1.);
#325=VECTOR('',#439,1.);
#326=VECTOR('',#440,1.);
#327=VECTOR('',#445,1.);
#328=VECTOR('',#448,1.);
#329=VECTOR('',#453,1.);
#330=VECTOR('',#454,1.);
#331=VECTOR('',#457,1.);
#332=VECTOR('',#458,1.);
#333=VECTOR('',#477,1.);
#334=VECTOR('',#478,1.);
#335=VECTOR('',#479,1.);
#336=VECTOR('',#484,1.);
#337=VECTOR('',#485,1.);
#338=VECTOR('',#486,1.);
#339=VECTOR('',#489,1.);
#340=VECTOR('',#490,1.);
#341=VECTOR('',#493,1.);
#342=VECTOR('',#494,1.);
#343=PRESENTATION_LAYER_ASSIGNMENT('1','Layer 1',(#372,#373,#374,#375,#49));
#344=PRESENTATION_LAYER_ASSIGNMENT('2','Layer 2',(#48));
#345=PRESENTATION_LAYER_ASSIGNMENT('4','Layer 4',(#50));
#346=STYLED_ITEM('',(#353),#372);
#347=STYLED_ITEM('',(#354),#373);
#348=STYLED_ITEM('',(#355),#374);
#349=STYLED_ITEM('',(#356),#375);
#350=STYLED_ITEM('',(#357),#48);
#351=STYLED_ITEM('',(#358),#49);
#352=STYLED_ITEM('',(#359),#50);
#353=PRESENTATION_STYLE_ASSIGNMENT((#360));
#354=PRESENTATION_STYLE_ASSIGNMENT((#361));
#355=PRESENTATION_STYLE_ASSIGNMENT((#362));
#356=PRESENTATION_STYLE_ASSIGNMENT((#363));
#357=PRESENTATION_STYLE_ASSIGNMENT((#33));
#358=PRESENTATION_STYLE_ASSIGNMENT((#34));
#359=PRESENTATION_STYLE_ASSIGNMENT((#35));
#360=CURVE_STYLE('',#367,POSITIVE_LENGTH_MEASURE(0.18),#364);
#361=CURVE_STYLE('',#368,POSITIVE_LENGTH_MEASURE(0.18),#364);
#362=CURVE_STYLE('',#369,POSITIVE_LENGTH_MEASURE(0.18),#364);
#363=CURVE_STYLE('',#370,POSITIVE_LENGTH_MEASURE(0.18),#364);
#364=COLOUR_RGB('Strong Stone',0.576470588235294,0.54508278019379,0.392156862745098);
#365=COLOUR_RGB('Medium Gray',0.490196078431373,0.490196078431373,0.490196078431373);
#366=COLOUR_RGB('Iron Gray',0.298023956664378,0.298023956664378,0.298023956664378);
#367=DRAUGHTING_PRE_DEFINED_CURVE_FONT('continuous');
#368=DRAUGHTING_PRE_DEFINED_CURVE_FONT('continuous');
#369=DRAUGHTING_PRE_DEFINED_CURVE_FONT('continuous');
#370=DRAUGHTING_PRE_DEFINED_CURVE_FONT('continuous');
#371=AXIS2_PLACEMENT_3D('',#503,#406,#407);
#372=AXIS2_PLACEMENT_3D('MCS',#504,#408,#409);
#373=AXIS2_PLACEMENT_3D('PCS',#505,#410,#411);
#374=AXIS2_PLACEMENT_3D('CSW1',#506,#412,#413);
#375=AXIS2_PLACEMENT_3D('CSW2',#507,#414,#415);
#376=AXIS2_PLACEMENT_3D('',#511,#417,#418);
#377=AXIS2_PLACEMENT_3D('',#515,#420,#421);
#378=AXIS2_PLACEMENT_3D('',#519,#423,#424);
#379=AXIS2_PLACEMENT_3D('',#523,#426,#427);
#380=AXIS2_PLACEMENT_3D('',#538,#429,#430);
#381=AXIS2_PLACEMENT_3D('',#541,#432,#433);
#382=AXIS2_PLACEMENT_3D('',#547,#437,#438);
#383=AXIS2_PLACEMENT_3D('',#550,#441,#442);
#384=AXIS2_PLACEMENT_3D('',#551,#443,#444);
#385=AXIS2_PLACEMENT_3D('',#553,#446,#447);
#386=AXIS2_PLACEMENT_3D('',#555,#449,#450);
#387=AXIS2_PLACEMENT_3D('',#556,#451,#452);
#388=AXIS2_PLACEMENT_3D('',#560,#455,#456);
#389=AXIS2_PLACEMENT_3D('',#564,#459,#460);
#390=AXIS2_PLACEMENT_3D('',#565,#461,#462);
#391=AXIS2_PLACEMENT_3D('',#566,#463,#464);
#392=AXIS2_PLACEMENT_3D('',#567,#465,#466);
#393=AXIS2_PLACEMENT_3D('',#568,#467,#468);
#394=AXIS2_PLACEMENT_3D('',#570,#469,#470);
#395=AXIS2_PLACEMENT_3D('',#571,#471,#472);
#396=AXIS2_PLACEMENT_3D('',#573,#473,#474);
#397=AXIS2_PLACEMENT_3D('',#574,#475,#476);
#398=AXIS2_PLACEMENT_3D('',#582,#480,#481);
#399=AXIS2_PLACEMENT_3D('',#583,#482,#483);
#400=AXIS2_PLACEMENT_3D('',#589,#487,#488);
#401=AXIS2_PLACEMENT_3D('',#593,#491,#492);
#402=AXIS2_PLACEMENT_3D('',#597,#495,#496);
#403=AXIS2_PLACEMENT_3D('',#598,#497,#498);
#404=AXIS2_PLACEMENT_3D('',#599,#499,#500);
#405=AXIS2_PLACEMENT_3D('',#600,#501,#502);
#406=DIRECTION('',(0.,0.,1.));
#407=DIRECTION('',(1.,0.,0.));
#408=DIRECTION('',(0.,0.,1.));
#409=DIRECTION('',(1.,0.,0.));
#410=DIRECTION('',(0.,0.,1.));
#411=DIRECTION('',(1.,0.,0.));
#412=DIRECTION('',(0.,0.,1.));
#413=DIRECTION('',(1.,0.,0.));
#414=DIRECTION('',(0.,0.,1.));
#415=DIRECTION('',(-1.,2.34291072916505E-15,0.));
#416=DIRECTION('',(0.,0.,-1.));
#417=DIRECTION('',(0.,0.,1.));
#418=DIRECTION('',(0.,1.,0.));
#419=DIRECTION('',(0.,0.,-1.));
#420=DIRECTION('',(0.,0.,1.));
#421=DIRECTION('',(-0.866025403784429,0.500000000000017,0.));
#422=DIRECTION('',(0.,0.,1.));
#423=DIRECTION('',(0.,0.,1.));
#424=DIRECTION('',(-0.866025403784429,-0.500000000000017,0.));
#425=DIRECTION('',(0.,0.,1.));
#426=DIRECTION('',(0.,0.,1.));
#427=DIRECTION('',(0.866025403784429,-0.500000000000017,0.));
#428=DIRECTION('',(0.,0.,1.));
#429=DIRECTION('',(0.,0.,1.));
#430=DIRECTION('',(-1.,0.,0.));
#431=DIRECTION('',(0.,0.,-1.));
#432=DIRECTION('',(0.,0.,1.));
#433=DIRECTION('',(-1.,0.,0.));
#434=DIRECTION('',(1.,0.,0.));
#435=DIRECTION('',(0.,-1.,0.));
#436=DIRECTION('',(-1.,0.,0.));
#437=DIRECTION('',(0.,0.,1.));
#438=DIRECTION('',(-1.,0.,0.));
#439=DIRECTION('',(-1.,0.,0.));
#440=DIRECTION('',(-1.,0.,0.));
#441=DIRECTION('',(0.,-1.,0.));
#442=DIRECTION('',(0.,0.,1.));
#443=DIRECTION('',(0.,0.,1.));
#444=DIRECTION('',(0.,1.,0.));
#445=DIRECTION('',(-1.,0.,0.));
#446=DIRECTION('',(0.,0.,1.));
#447=DIRECTION('',(0.,1.,0.));
#448=DIRECTION('',(-1.,0.,0.));
#449=DIRECTION('',(0.,1.,0.));
#450=DIRECTION('',(0.,0.,-1.));
#451=DIRECTION('',(0.,0.,1.));
#452=DIRECTION('',(0.,1.,0.));
#453=DIRECTION('',(-1.,0.,0.));
#454=DIRECTION('',(0.,0.,1.));
#455=DIRECTION('',(0.,-1.,0.));
#456=DIRECTION('',(0.,0.,-1.));
#457=DIRECTION('',(0.,0.,-1.));
#458=DIRECTION('',(-1.,0.,0.));
#459=DIRECTION('',(0.,1.,0.));
#460=DIRECTION('',(0.,0.,1.));
#461=DIRECTION('',(1.,0.,0.));
#462=DIRECTION('',(0.,1.,0.));
#463=DIRECTION('',(1.,0.,0.));
#464=DIRECTION('',(0.,0.,-1.));
#465=DIRECTION('',(-1.,0.,0.));
#466=DIRECTION('',(0.,0.,1.));
#467=DIRECTION('',(0.,0.,1.));
#468=DIRECTION('',(-1.,0.,0.));
#469=DIRECTION('',(0.,0.,1.));
#470=DIRECTION('',(-1.,0.,0.));
#471=DIRECTION('',(0.,0.,-1.));
#472=DIRECTION('',(0.,1.,0.));
#473=DIRECTION('',(0.,0.,1.));
#474=DIRECTION('',(-1.,0.,0.));
#475=DIRECTION('',(0.,0.,1.));
#476=DIRECTION('',(0.,-1.,0.));
#477=DIRECTION('',(0.,0.,-1.));
#478=DIRECTION('',(0.,1.,0.));
#479=DIRECTION('',(0.,0.,1.));
#480=DIRECTION('',(-1.,0.,0.));
#481=DIRECTION('',(0.,1.,0.));
#482=DIRECTION('',(-1.,0.,0.));
#483=DIRECTION('',(0.,0.,1.));
#484=DIRECTION('',(-1.,0.,0.));
#485=DIRECTION('',(0.,0.,-1.));
#486=DIRECTION('',(-1.,0.,0.));
#487=DIRECTION('',(0.,1.,0.));
#488=DIRECTION('',(0.,0.,1.));
#489=DIRECTION('',(0.,1.,0.));
#490=DIRECTION('',(-1.,0.,0.));
#491=DIRECTION('',(0.,0.,1.));
#492=DIRECTION('',(0.,-1.,0.));
#493=DIRECTION('',(0.,0.,1.));
#494=DIRECTION('',(-1.,0.,0.));
#495=DIRECTION('',(0.,-1.,0.));
#496=DIRECTION('',(0.,0.,-1.));
#497=DIRECTION('',(-1.,0.,0.));
#498=DIRECTION('',(0.,1.,0.));
#499=DIRECTION('',(-1.,0.,0.));
#500=DIRECTION('',(0.,0.,1.));
#501=DIRECTION('',(-1.,0.,0.));
#502=DIRECTION('',(0.,0.,1.));
#503=CARTESIAN_POINT('',(0.,0.,0.));
#504=CARTESIAN_POINT('',(0.,0.,0.));
#505=CARTESIAN_POINT('',(0.,0.,0.));
#506=CARTESIAN_POINT('',(5.48908023673925,-13.5,-29.9999999999994));
#507=CARTESIAN_POINT('',(-5.48908023673922,13.5,-29.9999999999994));
#508=CARTESIAN_POINT('',(23.38268590218,13.5,-62.));
#509=CARTESIAN_POINT('',(23.38268590218,13.5,-30.));
#510=CARTESIAN_POINT('',(23.38268590218,13.5,-62.));
#511=CARTESIAN_POINT('',(0.,0.,-62.));
#512=CARTESIAN_POINT('',(-23.38268590218,13.5,-62.));
#513=CARTESIAN_POINT('',(-23.38268590218,13.5,-62.));
#514=CARTESIAN_POINT('',(-23.38268590218,13.5,-30.));
#515=CARTESIAN_POINT('',(0.,0.,-30.));
#516=CARTESIAN_POINT('',(-23.38268590218,-13.5,-30.));
#517=CARTESIAN_POINT('',(-23.38268590218,-13.5,-62.));
#518=CARTESIAN_POINT('',(-23.38268590218,-13.5,-62.));
#519=CARTESIAN_POINT('',(0.,0.,-62.));
#520=CARTESIAN_POINT('',(23.38268590218,-13.5,-62.));
#521=CARTESIAN_POINT('',(23.38268590218,-13.5,-62.));
#522=CARTESIAN_POINT('',(23.38268590218,-13.5,-30.));
#523=CARTESIAN_POINT('',(0.,0.,-30.));
#524=CARTESIAN_POINT('',(-26.3248931621764,-6.,-11.5));
#525=CARTESIAN_POINT('',(-26.3248931621764,-6.,-13.0906540740213));
#526=CARTESIAN_POINT('',(-26.4890908349886,-5.34559346600821,-14.639687988054));
#527=CARTESIAN_POINT('',(-26.8400757177603,-3.13968760117904,-16.8455936932359));
#528=CARTESIAN_POINT('',(-26.9997049692697,-1.57550801066031,-17.4986723612643));
#529=CARTESIAN_POINT('',(-27.0002940808824,1.56537965526862,-17.501323364419));
#530=CARTESIAN_POINT('',(-26.8421014417642,3.12640817114694,-16.8578050264911));
#531=CARTESIAN_POINT('',(-26.4877119470619,5.354806595205,-14.6315410076281));
#532=CARTESIAN_POINT('',(-26.3248931621764,6.,-13.0906752141968));
#533=CARTESIAN_POINT('',(-26.3248931621764,6.,-11.5));
#534=CARTESIAN_POINT('',(-26.3248931621764,-6.,-11.5));
#535=CARTESIAN_POINT('',(-26.3248931621764,6.,-11.5));
#536=CARTESIAN_POINT('',(-26.3248931621764,6.,-22.5));
#537=CARTESIAN_POINT('',(-26.3248931621764,6.,0.));
#538=CARTESIAN_POINT('',(0.,0.,0.));
#539=CARTESIAN_POINT('',(-26.3248931621764,-6.,0.));
#540=CARTESIAN_POINT('',(-26.3248931621764,-6.,-22.5));
#541=CARTESIAN_POINT('',(0.,0.,-22.5));
#542=CARTESIAN_POINT('',(0.,6.,0.));
#543=CARTESIAN_POINT('',(-14.5,6.,0.));
#544=CARTESIAN_POINT('',(-14.5,0.,0.));
#545=CARTESIAN_POINT('',(-14.5,-6.,0.));
#546=CARTESIAN_POINT('',(0.,-6.,0.));
#547=CARTESIAN_POINT('',(0.,0.,0.));
#548=CARTESIAN_POINT('',(23.38268590218,-13.5,-30.));
#549=CARTESIAN_POINT('',(23.38268590218,-13.5,-62.));
#550=CARTESIAN_POINT('',(32.42668556319,-13.5,-62.));
#551=CARTESIAN_POINT('',(0.,0.,-62.));
#552=CARTESIAN_POINT('',(23.38268590218,13.5,-62.));
#553=CARTESIAN_POINT('',(0.,0.,-62.));
#554=CARTESIAN_POINT('',(23.38268590218,13.5,-30.));
#555=CARTESIAN_POINT('',(32.42668556319,13.5,-30.));
#556=CARTESIAN_POINT('',(32.42668556319,-13.5,-30.));
#557=CARTESIAN_POINT('',(-33.5,6.,-11.5));
#558=CARTESIAN_POINT('',(-14.5,6.,-11.5));
#559=CARTESIAN_POINT('',(-14.5,6.,5.5));
#560=CARTESIAN_POINT('',(-33.5,6.,5.5));
#561=CARTESIAN_POINT('',(-14.5,-6.,-11.5));
#562=CARTESIAN_POINT('',(-14.5,-6.,-11.5));
#563=CARTESIAN_POINT('',(-33.5,-6.,-11.5));
#564=CARTESIAN_POINT('',(-33.5,-6.,-11.5));
#565=CARTESIAN_POINT('',(-14.5,0.,-11.5));
#566=CARTESIAN_POINT('',(-33.5,0.,-11.5));
#567=CARTESIAN_POINT('',(-14.5,0.,-9.));
#568=CARTESIAN_POINT('',(0.,0.,30.));
#569=CARTESIAN_POINT('',(-14.,0.,30.));
#570=CARTESIAN_POINT('',(0.,0.,30.));
#571=CARTESIAN_POINT('',(0.,0.,0.));
#572=CARTESIAN_POINT('',(0.,14.,0.));
#573=CARTESIAN_POINT('',(0.,0.,-22.5));
#574=CARTESIAN_POINT('',(0.,0.,0.));
#575=CARTESIAN_POINT('',(-14.5,6.,5.5));
#576=CARTESIAN_POINT('',(-14.5,6.,6.3));
#577=CARTESIAN_POINT('',(-14.5,6.,-11.5));
#578=CARTESIAN_POINT('',(-14.5,-5.2,6.3));
#579=CARTESIAN_POINT('',(-14.5,-6.,6.3));
#580=CARTESIAN_POINT('',(-14.5,-6.,-11.5));
#581=CARTESIAN_POINT('',(-14.5,-6.,-11.5));
#582=CARTESIAN_POINT('',(-14.5,0.,-11.5));
#583=CARTESIAN_POINT('',(-14.5,0.,-9.));
#584=CARTESIAN_POINT('',(-14.5,6.,-11.5));
#585=CARTESIAN_POINT('',(-23.5,6.,-11.5));
#586=CARTESIAN_POINT('',(-23.5,6.,5.5));
#587=CARTESIAN_POINT('',(-23.5,6.,6.3));
#588=CARTESIAN_POINT('',(-14.5,6.,6.3));
#589=CARTESIAN_POINT('',(-14.5,6.,6.3));
#590=CARTESIAN_POINT('',(-23.5,-5.2,6.3));
#591=CARTESIAN_POINT('',(-23.5,-6.,6.3));
#592=CARTESIAN_POINT('',(-14.5,-6.,6.3));
#593=CARTESIAN_POINT('',(-14.5,-6.,6.3));
#594=CARTESIAN_POINT('',(-23.5,-6.,-11.5));
#595=CARTESIAN_POINT('',(-23.5,-6.,-11.5));
#596=CARTESIAN_POINT('',(-14.5,-6.,-11.5));
#597=CARTESIAN_POINT('',(-14.5,-6.,-11.5));
#598=CARTESIAN_POINT('',(-23.5,0.,-11.5));
#599=CARTESIAN_POINT('',(-14.5,0.,-11.5));
#600=CARTESIAN_POINT('',(-23.5,0.,-9.));
#601=MECHANICAL_DESIGN_GEOMETRIC_PRESENTATION_REPRESENTATION('',(#346,#347,
#348,#349,#350,#351,#352),#602);
#602=(
GEOMETRIC_REPRESENTATION_CONTEXT(3)
GLOBAL_UNCERTAINTY_ASSIGNED_CONTEXT((#603))
GLOBAL_UNIT_ASSIGNED_CONTEXT((#609,#605,#604))
REPRESENTATION_CONTEXT('A75050','TOP_LEVEL_ASSEMBLY_PART')
);
#603=UNCERTAINTY_MEASURE_WITH_UNIT(LENGTH_MEASURE(0.0508),#609,
'DISTANCE_ACCURACY_VALUE','Maximum Tolerance applied to model');
#604=(
NAMED_UNIT(*)
SI_UNIT($,.STERADIAN.)
SOLID_ANGLE_UNIT()
);
#605=(
CONVERSION_BASED_UNIT('DEGREE',#607)
NAMED_UNIT(#606)
PLANE_ANGLE_UNIT()
);
#606=DIMENSIONAL_EXPONENTS(0.,0.,0.,0.,0.,0.,0.);
#607=PLANE_ANGLE_MEASURE_WITH_UNIT(PLANE_ANGLE_MEASURE(0.0174532925),#608);
#608=(
NAMED_UNIT(*)
PLANE_ANGLE_UNIT()
SI_UNIT($,.RADIAN.)
);
#609=(
LENGTH_UNIT()
NAMED_UNIT(*)
SI_UNIT(.MILLI.,.METRE.)
);
ENDSEC;
END-ISO-10303-21;
