ISO-10303-21;
HEADER;
/* Generated by software containing ST-Developer
 * from STEP Tools, Inc. (www.steptools.com) 
 */
/* OPTION: using custom schema-name function */

FILE_DESCRIPTION(
/* description */ (''),
/* implementation_level */ '2;1');

FILE_NAME(
/* name */ 'A75040.stp',
/* time_stamp */ '2017-10-26T08:10:26+06:00',
/* author */ (''),
/* organization */ (''),
/* preprocessor_version */ 'ST-DEVELOPER v16',
/* originating_system */ 'SIEMENS PLM Software NX 11.0',
/* authorisation */ '');

FILE_SCHEMA (('AUTOMOTIVE_DESIGN { 1 0 10303 214 3 1 1 1 }'));
ENDSEC;

DATA;
#10=CONSTRUCTIVE_GEOMETRY_REPRESENTATION_RELATIONSHIP(
'supplemental geometry','',#32,#11);
#11=CONSTRUCTIVE_GEOMETRY_REPRESENTATION('supplemental geometry',(#373,
#374,#375,#376),#603);
#12=PROPERTY_DEFINITION_REPRESENTATION(#16,#14);
#13=PROPERTY_DEFINITION_REPRESENTATION(#17,#15);
#14=REPRESENTATION('',(#18),#603);
#15=REPRESENTATION('',(#19),#603);
#16=PROPERTY_DEFINITION('pmi validation property','',#23);
#17=PROPERTY_DEFINITION('pmi validation property','',#23);
#18=VALUE_REPRESENTATION_ITEM('number of annotations',COUNT_MEASURE(0.));
#19=VALUE_REPRESENTATION_ITEM('number of views',COUNT_MEASURE(0.));
#20=SHAPE_REPRESENTATION_RELATIONSHIP('None',
'relationship between A75040-None and A75040-None',#32,#21);
#21=ADVANCED_BREP_SHAPE_REPRESENTATION('A75040-None',(#48,#49,#50),#603);
#22=SHAPE_DEFINITION_REPRESENTATION(#23,#32);
#23=PRODUCT_DEFINITION_SHAPE('','',#24);
#24=PRODUCT_DEFINITION(' ','',#26,#25);
#25=PRODUCT_DEFINITION_CONTEXT('part definition',#31,'design');
#26=PRODUCT_DEFINITION_FORMATION_WITH_SPECIFIED_SOURCE(' ',' ',#28,
 .NOT_KNOWN.);
#27=PRODUCT_RELATED_PRODUCT_CATEGORY('part','',(#28));
#28=PRODUCT('A75040','A75040',' ',(#29));
#29=PRODUCT_CONTEXT(' ',#31,'mechanical');
#30=APPLICATION_PROTOCOL_DEFINITION('international standard',
'automotive_design',2010,#31);
#31=APPLICATION_CONTEXT(
'core data for automotive mechanical design processes');
#32=SHAPE_REPRESENTATION('A75040-None',(#372),#603);
#33=SURFACE_STYLE_USAGE(.BOTH.,#36);
#34=SURFACE_STYLE_USAGE(.BOTH.,#37);
#35=SURFACE_STYLE_USAGE(.BOTH.,#38);
#36=SURFACE_SIDE_STYLE('',(#39));
#37=SURFACE_SIDE_STYLE('',(#40));
#38=SURFACE_SIDE_STYLE('',(#41));
#39=SURFACE_STYLE_FILL_AREA(#42);
#40=SURFACE_STYLE_FILL_AREA(#43);
#41=SURFACE_STYLE_FILL_AREA(#44);
#42=FILL_AREA_STYLE('',(#45));
#43=FILL_AREA_STYLE('',(#46));
#44=FILL_AREA_STYLE('',(#47));
#45=FILL_AREA_STYLE_COLOUR('',#366);
#46=FILL_AREA_STYLE_COLOUR('',#366);
#47=FILL_AREA_STYLE_COLOUR('',#367);
#48=MANIFOLD_SOLID_BREP('NOCUT',#51);
#49=MANIFOLD_SOLID_BREP('NOCUT',#52);
#50=MANIFOLD_SOLID_BREP('NOCUT',#53);
#51=CLOSED_SHELL('',(#88,#89,#90,#91,#92,#93,#94,#95,#96,#97,#98));
#52=CLOSED_SHELL('',(#99,#100,#101));
#53=CLOSED_SHELL('',(#102,#103,#104,#105,#106,#107));
#54=PLANE('',#383);
#55=PLANE('',#384);
#56=PLANE('',#385);
#57=PLANE('',#386);
#58=PLANE('',#387);
#59=PLANE('',#388);
#60=PLANE('',#389);
#61=PLANE('',#392);
#62=PLANE('',#393);
#63=PLANE('',#395);
#64=PLANE('',#398);
#65=PLANE('',#399);
#66=PLANE('',#403);
#67=PLANE('',#404);
#68=PLANE('',#405);
#69=PLANE('',#406);
#70=FACE_OUTER_BOUND('',#118,.T.);
#71=FACE_OUTER_BOUND('',#119,.T.);
#72=FACE_OUTER_BOUND('',#120,.T.);
#73=FACE_OUTER_BOUND('',#121,.T.);
#74=FACE_OUTER_BOUND('',#122,.T.);
#75=FACE_OUTER_BOUND('',#123,.T.);
#76=FACE_OUTER_BOUND('',#124,.T.);
#77=FACE_OUTER_BOUND('',#125,.T.);
#78=FACE_OUTER_BOUND('',#126,.T.);
#79=FACE_OUTER_BOUND('',#127,.T.);
#80=FACE_OUTER_BOUND('',#128,.T.);
#81=FACE_OUTER_BOUND('',#131,.T.);
#82=FACE_OUTER_BOUND('',#132,.T.);
#83=FACE_OUTER_BOUND('',#133,.T.);
#84=FACE_OUTER_BOUND('',#134,.T.);
#85=FACE_OUTER_BOUND('',#135,.T.);
#86=FACE_OUTER_BOUND('',#136,.T.);
#87=FACE_OUTER_BOUND('',#137,.T.);
#88=ADVANCED_FACE('',(#112,#113),#108,.T.);
#89=ADVANCED_FACE('',(#70),#54,.F.);
#90=ADVANCED_FACE('',(#71),#55,.F.);
#91=ADVANCED_FACE('',(#72),#56,.F.);
#92=ADVANCED_FACE('',(#73),#57,.T.);
#93=ADVANCED_FACE('',(#74),#58,.F.);
#94=ADVANCED_FACE('',(#75),#59,.F.);
#95=ADVANCED_FACE('',(#76),#60,.F.);
#96=ADVANCED_FACE('',(#77),#109,.F.);
#97=ADVANCED_FACE('',(#78),#61,.F.);
#98=ADVANCED_FACE('',(#79),#62,.F.);
#99=ADVANCED_FACE('',(#80),#63,.T.);
#100=ADVANCED_FACE('',(#114,#115),#110,.T.);
#101=ADVANCED_FACE('',(#81),#64,.F.);
#102=ADVANCED_FACE('',(#82),#65,.F.);
#103=ADVANCED_FACE('',(#83),#111,.T.);
#104=ADVANCED_FACE('',(#84),#66,.F.);
#105=ADVANCED_FACE('',(#85),#67,.F.);
#106=ADVANCED_FACE('',(#86),#68,.T.);
#107=ADVANCED_FACE('',(#87),#69,.F.);
#108=CYLINDRICAL_SURFACE('',#382,21.5);
#109=CYLINDRICAL_SURFACE('',#391,5.);
#110=CYLINDRICAL_SURFACE('',#397,11.);
#111=CYLINDRICAL_SURFACE('',#402,5.);
#112=FACE_BOUND('',#116,.T.);
#113=FACE_BOUND('',#117,.T.);
#114=FACE_BOUND('',#129,.T.);
#115=FACE_BOUND('',#130,.T.);
#116=EDGE_LOOP('',(#149,#150,#151,#152));
#117=EDGE_LOOP('',(#153,#154,#155,#156,#157,#158,#159,#160));
#118=EDGE_LOOP('',(#161,#162,#163,#164));
#119=EDGE_LOOP('',(#165,#166));
#120=EDGE_LOOP('',(#167,#168));
#121=EDGE_LOOP('',(#169,#170,#171,#172));
#122=EDGE_LOOP('',(#173,#174,#175,#176));
#123=EDGE_LOOP('',(#177,#178,#179,#180));
#124=EDGE_LOOP('',(#181,#182,#183,#184));
#125=EDGE_LOOP('',(#185,#186,#187,#188));
#126=EDGE_LOOP('',(#189,#190,#191,#192));
#127=EDGE_LOOP('',(#193,#194,#195,#196));
#128=EDGE_LOOP('',(#197));
#129=EDGE_LOOP('',(#198));
#130=EDGE_LOOP('',(#199));
#131=EDGE_LOOP('',(#200));
#132=EDGE_LOOP('',(#201,#202,#203,#204));
#133=EDGE_LOOP('',(#205,#206,#207,#208));
#134=EDGE_LOOP('',(#209,#210,#211,#212));
#135=EDGE_LOOP('',(#213,#214,#215,#216));
#136=EDGE_LOOP('',(#217,#218,#219,#220));
#137=EDGE_LOOP('',(#221,#222,#223,#224));
#138=CIRCLE('',#377,21.5);
#139=CIRCLE('',#378,21.5);
#140=CIRCLE('',#379,21.5);
#141=CIRCLE('',#380,21.5);
#142=CIRCLE('',#381,21.5);
#143=CIRCLE('',#390,5.);
#144=CIRCLE('',#394,11.);
#145=CIRCLE('',#396,11.);
#146=CIRCLE('',#400,5.);
#147=CIRCLE('',#401,5.);
#148=B_SPLINE_CURVE_WITH_KNOTS('',3,(#512,#513,#514,#515,#516,#517,#518,
#519,#520,#521),.UNSPECIFIED.,.F.,.F.,(4,2,2,2,4),(0.,0.25,0.5,0.75,1.),
 .UNSPECIFIED.);
#149=ORIENTED_EDGE('',*,*,#251,.F.);
#150=ORIENTED_EDGE('',*,*,#252,.F.);
#151=ORIENTED_EDGE('',*,*,#253,.F.);
#152=ORIENTED_EDGE('',*,*,#254,.F.);
#153=ORIENTED_EDGE('',*,*,#255,.T.);
#154=ORIENTED_EDGE('',*,*,#256,.T.);
#155=ORIENTED_EDGE('',*,*,#257,.F.);
#156=ORIENTED_EDGE('',*,*,#258,.T.);
#157=ORIENTED_EDGE('',*,*,#259,.F.);
#158=ORIENTED_EDGE('',*,*,#260,.T.);
#159=ORIENTED_EDGE('',*,*,#261,.T.);
#160=ORIENTED_EDGE('',*,*,#262,.T.);
#161=ORIENTED_EDGE('',*,*,#263,.F.);
#162=ORIENTED_EDGE('',*,*,#261,.F.);
#163=ORIENTED_EDGE('',*,*,#264,.T.);
#164=ORIENTED_EDGE('',*,*,#259,.T.);
#165=ORIENTED_EDGE('',*,*,#264,.F.);
#166=ORIENTED_EDGE('',*,*,#260,.F.);
#167=ORIENTED_EDGE('',*,*,#256,.F.);
#168=ORIENTED_EDGE('',*,*,#265,.T.);
#169=ORIENTED_EDGE('',*,*,#266,.F.);
#170=ORIENTED_EDGE('',*,*,#254,.T.);
#171=ORIENTED_EDGE('',*,*,#267,.F.);
#172=ORIENTED_EDGE('',*,*,#268,.F.);
#173=ORIENTED_EDGE('',*,*,#265,.F.);
#174=ORIENTED_EDGE('',*,*,#255,.F.);
#175=ORIENTED_EDGE('',*,*,#269,.T.);
#176=ORIENTED_EDGE('',*,*,#257,.T.);
#177=ORIENTED_EDGE('',*,*,#269,.F.);
#178=ORIENTED_EDGE('',*,*,#262,.F.);
#179=ORIENTED_EDGE('',*,*,#263,.T.);
#180=ORIENTED_EDGE('',*,*,#258,.F.);
#181=ORIENTED_EDGE('',*,*,#251,.T.);
#182=ORIENTED_EDGE('',*,*,#266,.T.);
#183=ORIENTED_EDGE('',*,*,#270,.F.);
#184=ORIENTED_EDGE('',*,*,#271,.T.);
#185=ORIENTED_EDGE('',*,*,#252,.T.);
#186=ORIENTED_EDGE('',*,*,#271,.F.);
#187=ORIENTED_EDGE('',*,*,#272,.F.);
#188=ORIENTED_EDGE('',*,*,#273,.T.);
#189=ORIENTED_EDGE('',*,*,#253,.T.);
#190=ORIENTED_EDGE('',*,*,#273,.F.);
#191=ORIENTED_EDGE('',*,*,#274,.F.);
#192=ORIENTED_EDGE('',*,*,#267,.T.);
#193=ORIENTED_EDGE('',*,*,#268,.T.);
#194=ORIENTED_EDGE('',*,*,#274,.T.);
#195=ORIENTED_EDGE('',*,*,#272,.T.);
#196=ORIENTED_EDGE('',*,*,#270,.T.);
#197=ORIENTED_EDGE('',*,*,#275,.T.);
#198=ORIENTED_EDGE('',*,*,#275,.F.);
#199=ORIENTED_EDGE('',*,*,#276,.F.);
#200=ORIENTED_EDGE('',*,*,#276,.T.);
#201=ORIENTED_EDGE('',*,*,#277,.F.);
#202=ORIENTED_EDGE('',*,*,#278,.F.);
#203=ORIENTED_EDGE('',*,*,#279,.T.);
#204=ORIENTED_EDGE('',*,*,#280,.T.);
#205=ORIENTED_EDGE('',*,*,#281,.T.);
#206=ORIENTED_EDGE('',*,*,#282,.F.);
#207=ORIENTED_EDGE('',*,*,#283,.F.);
#208=ORIENTED_EDGE('',*,*,#278,.T.);
#209=ORIENTED_EDGE('',*,*,#284,.F.);
#210=ORIENTED_EDGE('',*,*,#285,.F.);
#211=ORIENTED_EDGE('',*,*,#286,.T.);
#212=ORIENTED_EDGE('',*,*,#282,.T.);
#213=ORIENTED_EDGE('',*,*,#287,.F.);
#214=ORIENTED_EDGE('',*,*,#280,.F.);
#215=ORIENTED_EDGE('',*,*,#288,.T.);
#216=ORIENTED_EDGE('',*,*,#285,.T.);
#217=ORIENTED_EDGE('',*,*,#279,.F.);
#218=ORIENTED_EDGE('',*,*,#283,.T.);
#219=ORIENTED_EDGE('',*,*,#286,.F.);
#220=ORIENTED_EDGE('',*,*,#288,.F.);
#221=ORIENTED_EDGE('',*,*,#287,.T.);
#222=ORIENTED_EDGE('',*,*,#284,.T.);
#223=ORIENTED_EDGE('',*,*,#281,.F.);
#224=ORIENTED_EDGE('',*,*,#277,.T.);
#225=VERTEX_POINT('',#510);
#226=VERTEX_POINT('',#511);
#227=VERTEX_POINT('',#522);
#228=VERTEX_POINT('',#524);
#229=VERTEX_POINT('',#527);
#230=VERTEX_POINT('',#528);
#231=VERTEX_POINT('',#530);
#232=VERTEX_POINT('',#532);
#233=VERTEX_POINT('',#534);
#234=VERTEX_POINT('',#536);
#235=VERTEX_POINT('',#538);
#236=VERTEX_POINT('',#540);
#237=VERTEX_POINT('',#550);
#238=VERTEX_POINT('',#552);
#239=VERTEX_POINT('',#559);
#240=VERTEX_POINT('',#563);
#241=VERTEX_POINT('',#570);
#242=VERTEX_POINT('',#573);
#243=VERTEX_POINT('',#577);
#244=VERTEX_POINT('',#578);
#245=VERTEX_POINT('',#580);
#246=VERTEX_POINT('',#582);
#247=VERTEX_POINT('',#586);
#248=VERTEX_POINT('',#588);
#249=VERTEX_POINT('',#592);
#250=VERTEX_POINT('',#594);
#251=EDGE_CURVE('',#225,#226,#289,.T.);
#252=EDGE_CURVE('',#227,#225,#148,.T.);
#253=EDGE_CURVE('',#228,#227,#290,.T.);
#254=EDGE_CURVE('',#226,#228,#138,.T.);
#255=EDGE_CURVE('',#229,#230,#291,.T.);
#256=EDGE_CURVE('',#230,#231,#139,.T.);
#257=EDGE_CURVE('',#232,#231,#292,.T.);
#258=EDGE_CURVE('',#232,#233,#140,.T.);
#259=EDGE_CURVE('',#234,#233,#293,.T.);
#260=EDGE_CURVE('',#234,#235,#141,.T.);
#261=EDGE_CURVE('',#235,#236,#294,.T.);
#262=EDGE_CURVE('',#236,#229,#142,.T.);
#263=EDGE_CURVE('',#236,#233,#295,.T.);
#264=EDGE_CURVE('',#235,#234,#296,.T.);
#265=EDGE_CURVE('',#230,#231,#297,.T.);
#266=EDGE_CURVE('',#226,#237,#298,.T.);
#267=EDGE_CURVE('',#238,#228,#299,.T.);
#268=EDGE_CURVE('',#237,#238,#300,.T.);
#269=EDGE_CURVE('',#229,#232,#301,.T.);
#270=EDGE_CURVE('',#239,#237,#302,.T.);
#271=EDGE_CURVE('',#239,#225,#303,.T.);
#272=EDGE_CURVE('',#240,#239,#143,.T.);
#273=EDGE_CURVE('',#240,#227,#304,.T.);
#274=EDGE_CURVE('',#238,#240,#305,.T.);
#275=EDGE_CURVE('',#241,#241,#144,.T.);
#276=EDGE_CURVE('',#242,#242,#145,.T.);
#277=EDGE_CURVE('',#243,#244,#306,.T.);
#278=EDGE_CURVE('',#245,#243,#307,.T.);
#279=EDGE_CURVE('',#245,#246,#308,.T.);
#280=EDGE_CURVE('',#246,#244,#309,.T.);
#281=EDGE_CURVE('',#243,#247,#146,.T.);
#282=EDGE_CURVE('',#248,#247,#310,.T.);
#283=EDGE_CURVE('',#245,#248,#147,.T.);
#284=EDGE_CURVE('',#249,#247,#311,.T.);
#285=EDGE_CURVE('',#250,#249,#312,.T.);
#286=EDGE_CURVE('',#250,#248,#313,.T.);
#287=EDGE_CURVE('',#244,#249,#314,.T.);
#288=EDGE_CURVE('',#246,#250,#315,.T.);
#289=LINE('',#509,#316);
#290=LINE('',#523,#317);
#291=LINE('',#526,#318);
#292=LINE('',#531,#319);
#293=LINE('',#535,#320);
#294=LINE('',#539,#321);
#295=LINE('',#543,#322);
#296=LINE('',#544,#323);
#297=LINE('',#547,#324);
#298=LINE('',#549,#325);
#299=LINE('',#551,#326);
#300=LINE('',#553,#327);
#301=LINE('',#555,#328);
#302=LINE('',#558,#329);
#303=LINE('',#560,#330);
#304=LINE('',#564,#331);
#305=LINE('',#566,#332);
#306=LINE('',#576,#333);
#307=LINE('',#579,#334);
#308=LINE('',#581,#335);
#309=LINE('',#583,#336);
#310=LINE('',#587,#337);
#311=LINE('',#591,#338);
#312=LINE('',#593,#339);
#313=LINE('',#595,#340);
#314=LINE('',#597,#341);
#315=LINE('',#598,#342);
#316=VECTOR('',#417,1.);
#317=VECTOR('',#418,1.);
#318=VECTOR('',#421,1.);
#319=VECTOR('',#424,1.);
#320=VECTOR('',#427,1.);
#321=VECTOR('',#430,1.);
#322=VECTOR('',#435,1.);
#323=VECTOR('',#436,1.);
#324=VECTOR('',#441,1.);
#325=VECTOR('',#444,1.);
#326=VECTOR('',#445,1.);
#327=VECTOR('',#446,1.);
#328=VECTOR('',#449,1.);
#329=VECTOR('',#454,1.);
#330=VECTOR('',#455,1.);
#331=VECTOR('',#460,1.);
#332=VECTOR('',#463,1.);
#333=VECTOR('',#478,1.);
#334=VECTOR('',#479,1.);
#335=VECTOR('',#480,1.);
#336=VECTOR('',#481,1.);
#337=VECTOR('',#486,1.);
#338=VECTOR('',#491,1.);
#339=VECTOR('',#492,1.);
#340=VECTOR('',#493,1.);
#341=VECTOR('',#496,1.);
#342=VECTOR('',#497,1.);
#343=PRESENTATION_LAYER_ASSIGNMENT('1','Layer 1',(#373,#374,#375,#376,#49));
#344=PRESENTATION_LAYER_ASSIGNMENT('2','Layer 2',(#48));
#345=PRESENTATION_LAYER_ASSIGNMENT('4','Layer 4',(#50));
#346=STYLED_ITEM('',(#353),#373);
#347=STYLED_ITEM('',(#354),#374);
#348=STYLED_ITEM('',(#355),#375);
#349=STYLED_ITEM('',(#356),#376);
#350=STYLED_ITEM('',(#357),#48);
#351=STYLED_ITEM('',(#358),#49);
#352=STYLED_ITEM('',(#359),#50);
#353=PRESENTATION_STYLE_ASSIGNMENT((#360));
#354=PRESENTATION_STYLE_ASSIGNMENT((#361));
#355=PRESENTATION_STYLE_ASSIGNMENT((#362));
#356=PRESENTATION_STYLE_ASSIGNMENT((#363));
#357=PRESENTATION_STYLE_ASSIGNMENT((#33));
#358=PRESENTATION_STYLE_ASSIGNMENT((#34));
#359=PRESENTATION_STYLE_ASSIGNMENT((#35));
#360=CURVE_STYLE('',#368,POSITIVE_LENGTH_MEASURE(0.18),#364);
#361=CURVE_STYLE('',#369,POSITIVE_LENGTH_MEASURE(0.18),#364);
#362=CURVE_STYLE('',#370,POSITIVE_LENGTH_MEASURE(0.18),#364);
#363=CURVE_STYLE('',#371,POSITIVE_LENGTH_MEASURE(0.18),#365);
#364=COLOUR_RGB('Strong Stone',0.576470588235294,0.54508278019379,0.392156862745098);
#365=COLOUR_RGB('Medium Maroon',0.6,0.4,0.4);
#366=COLOUR_RGB('Medium Gray',0.490196078431373,0.490196078431373,0.490196078431373);
#367=COLOUR_RGB('Iron Gray',0.298023956664378,0.298023956664378,0.298023956664378);
#368=DRAUGHTING_PRE_DEFINED_CURVE_FONT('continuous');
#369=DRAUGHTING_PRE_DEFINED_CURVE_FONT('continuous');
#370=DRAUGHTING_PRE_DEFINED_CURVE_FONT('continuous');
#371=DRAUGHTING_PRE_DEFINED_CURVE_FONT('continuous');
#372=AXIS2_PLACEMENT_3D('',#504,#407,#408);
#373=AXIS2_PLACEMENT_3D('MCS',#505,#409,#410);
#374=AXIS2_PLACEMENT_3D('PCS',#506,#411,#412);
#375=AXIS2_PLACEMENT_3D('CSW1',#507,#413,#414);
#376=AXIS2_PLACEMENT_3D('CSW2',#508,#415,#416);
#377=AXIS2_PLACEMENT_3D('',#525,#419,#420);
#378=AXIS2_PLACEMENT_3D('',#529,#422,#423);
#379=AXIS2_PLACEMENT_3D('',#533,#425,#426);
#380=AXIS2_PLACEMENT_3D('',#537,#428,#429);
#381=AXIS2_PLACEMENT_3D('',#541,#431,#432);
#382=AXIS2_PLACEMENT_3D('',#542,#433,#434);
#383=AXIS2_PLACEMENT_3D('',#545,#437,#438);
#384=AXIS2_PLACEMENT_3D('',#546,#439,#440);
#385=AXIS2_PLACEMENT_3D('',#548,#442,#443);
#386=AXIS2_PLACEMENT_3D('',#554,#447,#448);
#387=AXIS2_PLACEMENT_3D('',#556,#450,#451);
#388=AXIS2_PLACEMENT_3D('',#557,#452,#453);
#389=AXIS2_PLACEMENT_3D('',#561,#456,#457);
#390=AXIS2_PLACEMENT_3D('',#562,#458,#459);
#391=AXIS2_PLACEMENT_3D('',#565,#461,#462);
#392=AXIS2_PLACEMENT_3D('',#567,#464,#465);
#393=AXIS2_PLACEMENT_3D('',#568,#466,#467);
#394=AXIS2_PLACEMENT_3D('',#569,#468,#469);
#395=AXIS2_PLACEMENT_3D('',#571,#470,#471);
#396=AXIS2_PLACEMENT_3D('',#572,#472,#473);
#397=AXIS2_PLACEMENT_3D('',#574,#474,#475);
#398=AXIS2_PLACEMENT_3D('',#575,#476,#477);
#399=AXIS2_PLACEMENT_3D('',#584,#482,#483);
#400=AXIS2_PLACEMENT_3D('',#585,#484,#485);
#401=AXIS2_PLACEMENT_3D('',#589,#487,#488);
#402=AXIS2_PLACEMENT_3D('',#590,#489,#490);
#403=AXIS2_PLACEMENT_3D('',#596,#494,#495);
#404=AXIS2_PLACEMENT_3D('',#599,#498,#499);
#405=AXIS2_PLACEMENT_3D('',#600,#500,#501);
#406=AXIS2_PLACEMENT_3D('',#601,#502,#503);
#407=DIRECTION('',(0.,0.,1.));
#408=DIRECTION('',(1.,0.,0.));
#409=DIRECTION('',(0.,0.,1.));
#410=DIRECTION('',(1.,0.,0.));
#411=DIRECTION('',(0.,0.,1.));
#412=DIRECTION('',(1.,0.,0.));
#413=DIRECTION('',(0.,0.,1.));
#414=DIRECTION('',(1.,0.,0.));
#415=DIRECTION('',(0.,0.,1.));
#416=DIRECTION('',(-1.,2.34291072916505E-15,0.));
#417=DIRECTION('',(0.,0.,1.));
#418=DIRECTION('',(0.,0.,-1.));
#419=DIRECTION('',(0.,0.,1.));
#420=DIRECTION('',(-1.,0.,0.));
#421=DIRECTION('',(0.,0.,-1.));
#422=DIRECTION('',(0.,0.,1.));
#423=DIRECTION('',(0.,1.,0.));
#424=DIRECTION('',(0.,0.,-1.));
#425=DIRECTION('',(0.,0.,1.));
#426=DIRECTION('',(-0.85920712567031,0.511627906976706,0.));
#427=DIRECTION('',(0.,0.,1.));
#428=DIRECTION('',(0.,0.,1.));
#429=DIRECTION('',(-0.85920712567031,-0.511627906976706,0.));
#430=DIRECTION('',(0.,0.,1.));
#431=DIRECTION('',(0.,0.,1.));
#432=DIRECTION('',(0.85920712567031,-0.511627906976706,0.));
#433=DIRECTION('',(0.,0.,1.));
#434=DIRECTION('',(-1.,0.,0.));
#435=DIRECTION('',(-1.,0.,0.));
#436=DIRECTION('',(-1.,0.,0.));
#437=DIRECTION('',(0.,-1.,0.));
#438=DIRECTION('',(0.,0.,1.));
#439=DIRECTION('',(0.,0.,1.));
#440=DIRECTION('',(0.,1.,0.));
#441=DIRECTION('',(-1.,0.,0.));
#442=DIRECTION('',(0.,0.,1.));
#443=DIRECTION('',(0.,1.,0.));
#444=DIRECTION('',(1.,0.,0.));
#445=DIRECTION('',(-1.,0.,0.));
#446=DIRECTION('',(0.,1.,0.));
#447=DIRECTION('',(0.,0.,1.));
#448=DIRECTION('',(-1.,0.,0.));
#449=DIRECTION('',(-1.,0.,0.));
#450=DIRECTION('',(0.,1.,0.));
#451=DIRECTION('',(0.,0.,-1.));
#452=DIRECTION('',(0.,0.,1.));
#453=DIRECTION('',(0.,1.,0.));
#454=DIRECTION('',(0.,0.,1.));
#455=DIRECTION('',(-1.,0.,0.));
#456=DIRECTION('',(0.,-1.,0.));
#457=DIRECTION('',(0.,0.,-1.));
#458=DIRECTION('',(-1.,0.,0.));
#459=DIRECTION('',(0.,0.,-1.));
#460=DIRECTION('',(-1.,0.,0.));
#461=DIRECTION('',(1.,0.,0.));
#462=DIRECTION('',(0.,0.,-1.));
#463=DIRECTION('',(0.,0.,-1.));
#464=DIRECTION('',(0.,1.,0.));
#465=DIRECTION('',(0.,0.,1.));
#466=DIRECTION('',(1.,0.,0.));
#467=DIRECTION('',(0.,0.,-1.));
#468=DIRECTION('',(0.,0.,1.));
#469=DIRECTION('',(-1.,0.,0.));
#470=DIRECTION('',(0.,0.,1.));
#471=DIRECTION('',(-1.,0.,0.));
#472=DIRECTION('',(0.,0.,-1.));
#473=DIRECTION('',(0.,1.,0.));
#474=DIRECTION('',(0.,0.,1.));
#475=DIRECTION('',(-1.,0.,0.));
#476=DIRECTION('',(0.,0.,1.));
#477=DIRECTION('',(0.,-1.,0.));
#478=DIRECTION('',(0.,0.,1.));
#479=DIRECTION('',(-1.,0.,0.));
#480=DIRECTION('',(0.,0.,1.));
#481=DIRECTION('',(-1.,0.,0.));
#482=DIRECTION('',(0.,1.,0.));
#483=DIRECTION('',(1.,0.,0.));
#484=DIRECTION('',(1.,0.,0.));
#485=DIRECTION('',(0.,0.,-1.));
#486=DIRECTION('',(-1.,0.,0.));
#487=DIRECTION('',(1.,0.,0.));
#488=DIRECTION('',(0.,0.,-1.));
#489=DIRECTION('',(-1.,0.,0.));
#490=DIRECTION('',(0.,0.,1.));
#491=DIRECTION('',(0.,0.,-1.));
#492=DIRECTION('',(-1.,0.,0.));
#493=DIRECTION('',(0.,0.,-1.));
#494=DIRECTION('',(0.,-1.,0.));
#495=DIRECTION('',(-1.,0.,0.));
#496=DIRECTION('',(0.,1.,0.));
#497=DIRECTION('',(0.,1.,0.));
#498=DIRECTION('',(0.,0.,-1.));
#499=DIRECTION('',(-1.,0.,0.));
#500=DIRECTION('',(1.,0.,0.));
#501=DIRECTION('',(0.,0.,-1.));
#502=DIRECTION('',(1.,0.,0.));
#503=DIRECTION('',(0.,0.,-1.));
#504=CARTESIAN_POINT('',(0.,0.,0.));
#505=CARTESIAN_POINT('',(0.,0.,0.));
#506=CARTESIAN_POINT('',(0.,0.,0.));
#507=CARTESIAN_POINT('',(3.73908023673924,-11.,-26.9999999999994));
#508=CARTESIAN_POINT('',(-3.73908023673922,11.,-26.9999999999994));
#509=CARTESIAN_POINT('',(-20.9105236663265,-5.00000000000003,-19.05));
#510=CARTESIAN_POINT('',(-20.9105236663265,-5.00000000000003,-10.));
#511=CARTESIAN_POINT('',(-20.9105236663265,-5.00000000000003,0.));
#512=CARTESIAN_POINT('',(-20.9105236663265,4.99999999999997,-10.));
#513=CARTESIAN_POINT('',(-20.9105236663265,4.99999999999997,-11.3259718279818));
#514=CARTESIAN_POINT('',(-21.0541294195254,4.4543575619989,-12.6167008063867));
#515=CARTESIAN_POINT('',(-21.3604846434115,2.61674658743331,-14.4543306677253));
#516=CARTESIAN_POINT('',(-21.4997376202517,1.31345685756859,-14.9988717666877));
#517=CARTESIAN_POINT('',(-21.5002615189705,-1.30485296958608,-15.0011245319672));
#518=CARTESIAN_POINT('',(-21.3621915075258,-2.60606559924492,-14.4641508675618));
#519=CARTESIAN_POINT('',(-21.052969206683,-4.46175878933775,-12.610158880545));
#520=CARTESIAN_POINT('',(-20.9105236663265,-5.00000000000003,-11.325994937701));
#521=CARTESIAN_POINT('',(-20.9105236663265,-5.00000000000003,-10.));
#522=CARTESIAN_POINT('',(-20.9105236663265,4.99999999999998,-10.));
#523=CARTESIAN_POINT('',(-20.9105236663265,4.99999999999998,-19.05));
#524=CARTESIAN_POINT('',(-20.9105236663265,4.99999999999998,0.));
#525=CARTESIAN_POINT('',(0.,0.,0.));
#526=CARTESIAN_POINT('',(18.47295320191,11.,-54.));
#527=CARTESIAN_POINT('',(18.47295320191,11.,-27.));
#528=CARTESIAN_POINT('',(18.47295320191,11.,-54.));
#529=CARTESIAN_POINT('',(0.,0.,-54.));
#530=CARTESIAN_POINT('',(-18.47295320191,11.,-54.));
#531=CARTESIAN_POINT('',(-18.47295320191,11.,-54.));
#532=CARTESIAN_POINT('',(-18.47295320191,11.,-27.));
#533=CARTESIAN_POINT('',(0.,0.,-27.));
#534=CARTESIAN_POINT('',(-18.47295320191,-11.,-27.));
#535=CARTESIAN_POINT('',(-18.47295320191,-11.,-54.));
#536=CARTESIAN_POINT('',(-18.47295320191,-11.,-54.));
#537=CARTESIAN_POINT('',(0.,0.,-54.));
#538=CARTESIAN_POINT('',(18.47295320191,-11.,-54.));
#539=CARTESIAN_POINT('',(18.47295320191,-11.,-54.));
#540=CARTESIAN_POINT('',(18.47295320191,-11.,-27.));
#541=CARTESIAN_POINT('',(0.,0.,-27.));
#542=CARTESIAN_POINT('',(0.,0.,-19.05));
#543=CARTESIAN_POINT('',(18.47295320191,-11.,-27.));
#544=CARTESIAN_POINT('',(18.47295320191,-11.,-54.));
#545=CARTESIAN_POINT('',(25.82124961513,-11.,-54.));
#546=CARTESIAN_POINT('',(0.,0.,-54.));
#547=CARTESIAN_POINT('',(18.47295320191,11.,-54.));
#548=CARTESIAN_POINT('',(0.,0.,-54.));
#549=CARTESIAN_POINT('',(0.,-5.00000000000003,0.));
#550=CARTESIAN_POINT('',(-12.,-5.00000000000003,0.));
#551=CARTESIAN_POINT('',(0.,4.99999999999998,0.));
#552=CARTESIAN_POINT('',(-12.,4.99999999999998,0.));
#553=CARTESIAN_POINT('',(-12.,0.,0.));
#554=CARTESIAN_POINT('',(0.,0.,0.));
#555=CARTESIAN_POINT('',(18.47295320191,11.,-27.));
#556=CARTESIAN_POINT('',(25.82124961513,11.,-27.));
#557=CARTESIAN_POINT('',(25.82124961513,-11.,-27.));
#558=CARTESIAN_POINT('',(-12.,-5.00000000000003,5.6));
#559=CARTESIAN_POINT('',(-12.,-5.00000000000003,-10.));
#560=CARTESIAN_POINT('',(-38.,-5.00000000000003,-10.));
#561=CARTESIAN_POINT('',(-38.,-5.00000000000003,5.6));
#562=CARTESIAN_POINT('',(-12.,-2.77555756156289E-14,-10.));
#563=CARTESIAN_POINT('',(-12.,4.99999999999998,-10.));
#564=CARTESIAN_POINT('',(-38.,4.99999999999998,-10.));
#565=CARTESIAN_POINT('',(-38.,-2.77555756156289E-14,-10.));
#566=CARTESIAN_POINT('',(-12.,4.99999999999998,-10.));
#567=CARTESIAN_POINT('',(-38.,4.99999999999998,-10.));
#568=CARTESIAN_POINT('',(-12.,-2.77555756156289E-14,-10.));
#569=CARTESIAN_POINT('',(0.,0.,24.));
#570=CARTESIAN_POINT('',(-11.,0.,24.));
#571=CARTESIAN_POINT('',(0.,0.,24.));
#572=CARTESIAN_POINT('',(0.,0.,0.));
#573=CARTESIAN_POINT('',(0.,11.,0.));
#574=CARTESIAN_POINT('',(0.,0.,-19.05));
#575=CARTESIAN_POINT('',(0.,0.,0.));
#576=CARTESIAN_POINT('',(-19.5,-5.00000000000003,5.6));
#577=CARTESIAN_POINT('',(-19.5,-5.00000000000003,-10.));
#578=CARTESIAN_POINT('',(-19.5,-5.00000000000003,5.6));
#579=CARTESIAN_POINT('',(-12.,-5.00000000000003,-10.));
#580=CARTESIAN_POINT('',(-12.,-5.00000000000003,-10.));
#581=CARTESIAN_POINT('',(-12.,-5.00000000000003,5.6));
#582=CARTESIAN_POINT('',(-12.,-5.00000000000003,5.6));
#583=CARTESIAN_POINT('',(-12.,-5.00000000000003,5.6));
#584=CARTESIAN_POINT('',(-12.,-5.00000000000003,5.6));
#585=CARTESIAN_POINT('',(-19.5,-2.77555756156289E-14,-10.));
#586=CARTESIAN_POINT('',(-19.5,4.99999999999998,-10.));
#587=CARTESIAN_POINT('',(-12.,4.99999999999998,-10.));
#588=CARTESIAN_POINT('',(-12.,4.99999999999998,-10.));
#589=CARTESIAN_POINT('',(-12.,-2.77555756156289E-14,-10.));
#590=CARTESIAN_POINT('',(-12.,-2.77555756156289E-14,-10.));
#591=CARTESIAN_POINT('',(-19.5,4.99999999999998,-10.));
#592=CARTESIAN_POINT('',(-19.5,4.99999999999998,5.6));
#593=CARTESIAN_POINT('',(-12.,4.99999999999998,5.6));
#594=CARTESIAN_POINT('',(-12.,4.99999999999998,5.6));
#595=CARTESIAN_POINT('',(-12.,4.99999999999998,-10.));
#596=CARTESIAN_POINT('',(-12.,4.99999999999998,-10.));
#597=CARTESIAN_POINT('',(-19.5,4.99999999999998,5.6));
#598=CARTESIAN_POINT('',(-12.,4.99999999999998,5.6));
#599=CARTESIAN_POINT('',(-12.,4.99999999999998,5.6));
#600=CARTESIAN_POINT('',(-12.,-2.77555756156289E-14,-10.));
#601=CARTESIAN_POINT('',(-19.5,-2.77555756156289E-14,-10.));
#602=MECHANICAL_DESIGN_GEOMETRIC_PRESENTATION_REPRESENTATION('',(#346,#347,
#348,#349,#350,#351,#352),#603);
#603=(
GEOMETRIC_REPRESENTATION_CONTEXT(3)
GLOBAL_UNCERTAINTY_ASSIGNED_CONTEXT((#604))
GLOBAL_UNIT_ASSIGNED_CONTEXT((#610,#606,#605))
REPRESENTATION_CONTEXT('A75040','TOP_LEVEL_ASSEMBLY_PART')
);
#604=UNCERTAINTY_MEASURE_WITH_UNIT(LENGTH_MEASURE(0.0508),#610,
'DISTANCE_ACCURACY_VALUE','Maximum Tolerance applied to model');
#605=(
NAMED_UNIT(*)
SI_UNIT($,.STERADIAN.)
SOLID_ANGLE_UNIT()
);
#606=(
CONVERSION_BASED_UNIT('DEGREE',#608)
NAMED_UNIT(#607)
PLANE_ANGLE_UNIT()
);
#607=DIMENSIONAL_EXPONENTS(0.,0.,0.,0.,0.,0.,0.);
#608=PLANE_ANGLE_MEASURE_WITH_UNIT(PLANE_ANGLE_MEASURE(0.0174532925),#609);
#609=(
NAMED_UNIT(*)
PLANE_ANGLE_UNIT()
SI_UNIT($,.RADIAN.)
);
#610=(
LENGTH_UNIT()
NAMED_UNIT(*)
SI_UNIT(.MILLI.,.METRE.)
);
ENDSEC;
END-ISO-10303-21;
