ISO-10303-21;
HEADER;
/* Generated by software containing ST-Developer
 * from STEP Tools, Inc. (www.steptools.com) 
 */
/* OPTION: using custom schema-name function */

FILE_DESCRIPTION(
/* description */ (''),
/* implementation_level */ '2;1');

FILE_NAME(
/* name */ 'A75030.stp',
/* time_stamp */ '2010-09-16T09:35:12+02:00',
/* author */ (''),
/* organization */ (''),
/* preprocessor_version */ 'ST-DEVELOPER v11',
/* originating_system */ 'UGS - NX 5.0',
/* authorisation */ '');

FILE_SCHEMA (('AUTOMOTIVE_DESIGN { 1 0 10303 214 1 1 1 1 }'));
ENDSEC;

DATA;
#10=SHAPE_REPRESENTATION_RELATIONSHIP('None',
'relationship between A75030-None and A75030-None',#22,#11);
#11=ADVANCED_BREP_SHAPE_REPRESENTATION('A75030-None',(#32),#661);
#12=SHAPE_DEFINITION_REPRESENTATION(#13,#22);
#13=PRODUCT_DEFINITION_SHAPE('','',#14);
#14=PRODUCT_DEFINITION(' ','',#16,#15);
#15=PRODUCT_DEFINITION_CONTEXT('part definition',#21,'design');
#16=PRODUCT_DEFINITION_FORMATION_WITH_SPECIFIED_SOURCE(' ',' ',#18,.NOT_KNOWN.);
#17=PRODUCT_RELATED_PRODUCT_CATEGORY('part','',(#18));
#18=PRODUCT('A75030','A75030',' ',(#19));
#19=PRODUCT_CONTEXT(' ',#21,'mechanical');
#20=APPLICATION_PROTOCOL_DEFINITION('international standard',
'automotive_design',2001,#21);
#21=APPLICATION_CONTEXT(
'core data for automotive mechanical design processes');
#22=SHAPE_REPRESENTATION('A75030-None',(#400),#661);
#23=PRESENTATION_LAYER_ASSIGNMENT('1','Layer 1',(#32));
#24=STYLED_ITEM('',(#25),#32);
#25=PRESENTATION_STYLE_ASSIGNMENT((#26));
#26=SURFACE_STYLE_USAGE(.BOTH.,#27);
#27=SURFACE_SIDE_STYLE('',(#28));
#28=SURFACE_STYLE_FILL_AREA(#29);
#29=FILL_AREA_STYLE('',(#30));
#30=FILL_AREA_STYLE_COLOUR('',#31);
#31=COLOUR_RGB('Light Gray',0.6,0.6,0.6);
#32=MANIFOLD_SOLID_BREP('',#33);
#33=CLOSED_SHELL('',(#55,#56,#57,#58,#59,#60,#61,#62,#63,#64,#65,#66,#67,
#68,#69,#70,#71,#72,#73,#74));
#34=FACE_BOUND('',#103,.T.);
#35=FACE_BOUND('',#104,.T.);
#36=FACE_BOUND('',#105,.T.);
#37=FACE_BOUND('',#110,.T.);
#38=FACE_BOUND('',#111,.T.);
#39=FACE_BOUND('',#113,.T.);
#40=FACE_BOUND('',#114,.T.);
#41=PLANE('',#408);
#42=PLANE('',#410);
#43=PLANE('',#412);
#44=PLANE('',#418);
#45=PLANE('',#423);
#46=PLANE('',#424);
#47=PLANE('',#427);
#48=PLANE('',#431);
#49=PLANE('',#433);
#50=PLANE('',#434);
#51=PLANE('',#435);
#52=PLANE('',#436);
#53=PLANE('',#437);
#54=PLANE('',#438);
#55=ADVANCED_FACE('',(#81),#75,.T.);
#56=ADVANCED_FACE('',(#82),#41,.F.);
#57=ADVANCED_FACE('',(#83),#42,.F.);
#58=ADVANCED_FACE('',(#84),#43,.F.);
#59=ADVANCED_FACE('',(#85),#76,.T.);
#60=ADVANCED_FACE('',(#34,#35,#36),#44,.T.);
#61=ADVANCED_FACE('',(#86),#77,.T.);
#62=ADVANCED_FACE('',(#87),#78,.T.);
#63=ADVANCED_FACE('',(#88),#45,.T.);
#64=ADVANCED_FACE('',(#89),#46,.F.);
#65=ADVANCED_FACE('',(#37,#38),#47,.T.);
#66=ADVANCED_FACE('',(#90),#79,.F.);
#67=ADVANCED_FACE('',(#39,#40),#48,.T.);
#68=ADVANCED_FACE('',(#91),#80,.F.);
#69=ADVANCED_FACE('',(#92),#49,.T.);
#70=ADVANCED_FACE('',(#93),#50,.T.);
#71=ADVANCED_FACE('',(#94),#51,.T.);
#72=ADVANCED_FACE('',(#95),#52,.T.);
#73=ADVANCED_FACE('',(#96),#53,.F.);
#74=ADVANCED_FACE('',(#97),#54,.F.);
#75=CYLINDRICAL_SURFACE('',#407,17.5);
#76=CYLINDRICAL_SURFACE('',#415,17.5);
#77=CYLINDRICAL_SURFACE('',#420,9.);
#78=CYLINDRICAL_SURFACE('',#422,9.);
#79=CYLINDRICAL_SURFACE('',#429,1.25);
#80=CYLINDRICAL_SURFACE('',#432,1.25);
#81=FACE_OUTER_BOUND('',#98,.T.);
#82=FACE_OUTER_BOUND('',#99,.T.);
#83=FACE_OUTER_BOUND('',#100,.T.);
#84=FACE_OUTER_BOUND('',#101,.T.);
#85=FACE_OUTER_BOUND('',#102,.T.);
#86=FACE_OUTER_BOUND('',#106,.T.);
#87=FACE_OUTER_BOUND('',#107,.T.);
#88=FACE_OUTER_BOUND('',#108,.T.);
#89=FACE_OUTER_BOUND('',#109,.T.);
#90=FACE_OUTER_BOUND('',#112,.T.);
#91=FACE_OUTER_BOUND('',#115,.T.);
#92=FACE_OUTER_BOUND('',#116,.T.);
#93=FACE_OUTER_BOUND('',#117,.T.);
#94=FACE_OUTER_BOUND('',#118,.T.);
#95=FACE_OUTER_BOUND('',#119,.T.);
#96=FACE_OUTER_BOUND('',#120,.T.);
#97=FACE_OUTER_BOUND('',#121,.T.);
#98=EDGE_LOOP('',(#190,#191,#192,#193,#194,#195,#196,#197,#198,#199,#200,
#201));
#99=EDGE_LOOP('',(#202,#203,#204,#205));
#100=EDGE_LOOP('',(#206,#207,#208));
#101=EDGE_LOOP('',(#209,#210,#211));
#102=EDGE_LOOP('',(#212,#213,#214,#215,#216,#217,#218,#219,#220,#221,#222,
#223));
#103=EDGE_LOOP('',(#224,#225));
#104=EDGE_LOOP('',(#226,#227));
#105=EDGE_LOOP('',(#228,#229,#230,#231));
#106=EDGE_LOOP('',(#232,#233,#234,#235));
#107=EDGE_LOOP('',(#236,#237,#238,#239));
#108=EDGE_LOOP('',(#240,#241));
#109=EDGE_LOOP('',(#242,#243,#244,#245,#246,#247));
#110=EDGE_LOOP('',(#248,#249,#250,#251));
#111=EDGE_LOOP('',(#252,#253));
#112=EDGE_LOOP('',(#254,#255,#256,#257));
#113=EDGE_LOOP('',(#258,#259,#260,#261));
#114=EDGE_LOOP('',(#262,#263));
#115=EDGE_LOOP('',(#264,#265,#266,#267));
#116=EDGE_LOOP('',(#268,#269,#270,#271));
#117=EDGE_LOOP('',(#272,#273,#274,#275));
#118=EDGE_LOOP('',(#276,#277,#278,#279));
#119=EDGE_LOOP('',(#280,#281,#282,#283,#284,#285));
#120=EDGE_LOOP('',(#286,#287,#288,#289));
#121=EDGE_LOOP('',(#290,#291,#292,#293));
#122=LINE('',#555,#156);
#123=LINE('',#559,#157);
#124=LINE('',#563,#158);
#125=LINE('',#567,#159);
#126=LINE('',#571,#160);
#127=LINE('',#575,#161);
#128=LINE('',#577,#162);
#129=LINE('',#579,#163);
#130=LINE('',#581,#164);
#131=LINE('',#587,#165);
#132=LINE('',#591,#166);
#133=LINE('',#598,#167);
#134=LINE('',#601,#168);
#135=LINE('',#603,#169);
#136=LINE('',#605,#170);
#137=LINE('',#607,#171);
#138=LINE('',#611,#172);
#139=LINE('',#616,#173);
#140=LINE('',#618,#174);
#141=LINE('',#620,#175);
#142=LINE('',#622,#176);
#143=LINE('',#624,#177);
#144=LINE('',#626,#178);
#145=LINE('',#628,#179);
#146=LINE('',#634,#180);
#147=LINE('',#636,#181);
#148=LINE('',#640,#182);
#149=LINE('',#642,#183);
#150=LINE('',#646,#184);
#151=LINE('',#648,#185);
#152=LINE('',#650,#186);
#153=LINE('',#652,#187);
#154=LINE('',#654,#188);
#155=LINE('',#657,#189);
#156=VECTOR('',#443,1.);
#157=VECTOR('',#446,1.);
#158=VECTOR('',#449,1.);
#159=VECTOR('',#452,1.);
#160=VECTOR('',#455,1.);
#161=VECTOR('',#458,1.);
#162=VECTOR('',#461,1.);
#163=VECTOR('',#462,1.);
#164=VECTOR('',#463,1.);
#165=VECTOR('',#472,1.);
#166=VECTOR('',#477,1.);
#167=VECTOR('',#486,1.);
#168=VECTOR('',#487,1.);
#169=VECTOR('',#488,1.);
#170=VECTOR('',#489,1.);
#171=VECTOR('',#492,1.);
#172=VECTOR('',#495,1.);
#173=VECTOR('',#504,1.);
#174=VECTOR('',#505,1.);
#175=VECTOR('',#506,1.);
#176=VECTOR('',#507,1.);
#177=VECTOR('',#508,1.);
#178=VECTOR('',#511,1.);
#179=VECTOR('',#512,1.);
#180=VECTOR('',#519,1.);
#181=VECTOR('',#520,1.);
#182=VECTOR('',#525,1.);
#183=VECTOR('',#526,1.);
#184=VECTOR('',#533,1.);
#185=VECTOR('',#534,1.);
#186=VECTOR('',#537,1.);
#187=VECTOR('',#538,1.);
#188=VECTOR('',#541,1.);
#189=VECTOR('',#546,1.);
#190=ORIENTED_EDGE('',*,*,#330,.T.);
#191=ORIENTED_EDGE('',*,*,#331,.T.);
#192=ORIENTED_EDGE('',*,*,#332,.T.);
#193=ORIENTED_EDGE('',*,*,#333,.T.);
#194=ORIENTED_EDGE('',*,*,#334,.F.);
#195=ORIENTED_EDGE('',*,*,#335,.F.);
#196=ORIENTED_EDGE('',*,*,#336,.F.);
#197=ORIENTED_EDGE('',*,*,#337,.F.);
#198=ORIENTED_EDGE('',*,*,#338,.T.);
#199=ORIENTED_EDGE('',*,*,#339,.T.);
#200=ORIENTED_EDGE('',*,*,#340,.T.);
#201=ORIENTED_EDGE('',*,*,#341,.F.);
#202=ORIENTED_EDGE('',*,*,#342,.F.);
#203=ORIENTED_EDGE('',*,*,#343,.F.);
#204=ORIENTED_EDGE('',*,*,#344,.T.);
#205=ORIENTED_EDGE('',*,*,#341,.T.);
#206=ORIENTED_EDGE('',*,*,#345,.F.);
#207=ORIENTED_EDGE('',*,*,#330,.F.);
#208=ORIENTED_EDGE('',*,*,#344,.F.);
#209=ORIENTED_EDGE('',*,*,#338,.F.);
#210=ORIENTED_EDGE('',*,*,#346,.F.);
#211=ORIENTED_EDGE('',*,*,#347,.T.);
#212=ORIENTED_EDGE('',*,*,#348,.T.);
#213=ORIENTED_EDGE('',*,*,#349,.F.);
#214=ORIENTED_EDGE('',*,*,#346,.T.);
#215=ORIENTED_EDGE('',*,*,#337,.T.);
#216=ORIENTED_EDGE('',*,*,#336,.T.);
#217=ORIENTED_EDGE('',*,*,#335,.T.);
#218=ORIENTED_EDGE('',*,*,#350,.T.);
#219=ORIENTED_EDGE('',*,*,#333,.F.);
#220=ORIENTED_EDGE('',*,*,#332,.F.);
#221=ORIENTED_EDGE('',*,*,#331,.F.);
#222=ORIENTED_EDGE('',*,*,#345,.T.);
#223=ORIENTED_EDGE('',*,*,#343,.T.);
#224=ORIENTED_EDGE('',*,*,#334,.T.);
#225=ORIENTED_EDGE('',*,*,#350,.F.);
#226=ORIENTED_EDGE('',*,*,#351,.T.);
#227=ORIENTED_EDGE('',*,*,#352,.F.);
#228=ORIENTED_EDGE('',*,*,#353,.F.);
#229=ORIENTED_EDGE('',*,*,#354,.F.);
#230=ORIENTED_EDGE('',*,*,#355,.T.);
#231=ORIENTED_EDGE('',*,*,#356,.T.);
#232=ORIENTED_EDGE('',*,*,#352,.T.);
#233=ORIENTED_EDGE('',*,*,#357,.T.);
#234=ORIENTED_EDGE('',*,*,#358,.F.);
#235=ORIENTED_EDGE('',*,*,#359,.F.);
#236=ORIENTED_EDGE('',*,*,#360,.T.);
#237=ORIENTED_EDGE('',*,*,#357,.F.);
#238=ORIENTED_EDGE('',*,*,#351,.F.);
#239=ORIENTED_EDGE('',*,*,#359,.T.);
#240=ORIENTED_EDGE('',*,*,#358,.T.);
#241=ORIENTED_EDGE('',*,*,#360,.F.);
#242=ORIENTED_EDGE('',*,*,#361,.F.);
#243=ORIENTED_EDGE('',*,*,#362,.T.);
#244=ORIENTED_EDGE('',*,*,#363,.F.);
#245=ORIENTED_EDGE('',*,*,#364,.T.);
#246=ORIENTED_EDGE('',*,*,#365,.F.);
#247=ORIENTED_EDGE('',*,*,#356,.F.);
#248=ORIENTED_EDGE('',*,*,#365,.T.);
#249=ORIENTED_EDGE('',*,*,#366,.T.);
#250=ORIENTED_EDGE('',*,*,#367,.F.);
#251=ORIENTED_EDGE('',*,*,#353,.T.);
#252=ORIENTED_EDGE('',*,*,#368,.F.);
#253=ORIENTED_EDGE('',*,*,#369,.F.);
#254=ORIENTED_EDGE('',*,*,#370,.T.);
#255=ORIENTED_EDGE('',*,*,#369,.T.);
#256=ORIENTED_EDGE('',*,*,#371,.F.);
#257=ORIENTED_EDGE('',*,*,#372,.F.);
#258=ORIENTED_EDGE('',*,*,#373,.F.);
#259=ORIENTED_EDGE('',*,*,#374,.F.);
#260=ORIENTED_EDGE('',*,*,#361,.T.);
#261=ORIENTED_EDGE('',*,*,#355,.F.);
#262=ORIENTED_EDGE('',*,*,#375,.T.);
#263=ORIENTED_EDGE('',*,*,#372,.T.);
#264=ORIENTED_EDGE('',*,*,#371,.T.);
#265=ORIENTED_EDGE('',*,*,#368,.T.);
#266=ORIENTED_EDGE('',*,*,#370,.F.);
#267=ORIENTED_EDGE('',*,*,#375,.F.);
#268=ORIENTED_EDGE('',*,*,#376,.T.);
#269=ORIENTED_EDGE('',*,*,#377,.F.);
#270=ORIENTED_EDGE('',*,*,#362,.F.);
#271=ORIENTED_EDGE('',*,*,#374,.T.);
#272=ORIENTED_EDGE('',*,*,#377,.T.);
#273=ORIENTED_EDGE('',*,*,#378,.F.);
#274=ORIENTED_EDGE('',*,*,#379,.F.);
#275=ORIENTED_EDGE('',*,*,#363,.T.);
#276=ORIENTED_EDGE('',*,*,#380,.T.);
#277=ORIENTED_EDGE('',*,*,#366,.F.);
#278=ORIENTED_EDGE('',*,*,#364,.F.);
#279=ORIENTED_EDGE('',*,*,#379,.T.);
#280=ORIENTED_EDGE('',*,*,#367,.T.);
#281=ORIENTED_EDGE('',*,*,#380,.F.);
#282=ORIENTED_EDGE('',*,*,#378,.T.);
#283=ORIENTED_EDGE('',*,*,#376,.F.);
#284=ORIENTED_EDGE('',*,*,#373,.T.);
#285=ORIENTED_EDGE('',*,*,#354,.T.);
#286=ORIENTED_EDGE('',*,*,#347,.F.);
#287=ORIENTED_EDGE('',*,*,#349,.T.);
#288=ORIENTED_EDGE('',*,*,#381,.T.);
#289=ORIENTED_EDGE('',*,*,#339,.F.);
#290=ORIENTED_EDGE('',*,*,#381,.F.);
#291=ORIENTED_EDGE('',*,*,#348,.F.);
#292=ORIENTED_EDGE('',*,*,#342,.T.);
#293=ORIENTED_EDGE('',*,*,#340,.F.);
#294=VERTEX_POINT('',#553);
#295=VERTEX_POINT('',#554);
#296=VERTEX_POINT('',#556);
#297=VERTEX_POINT('',#558);
#298=VERTEX_POINT('',#560);
#299=VERTEX_POINT('',#562);
#300=VERTEX_POINT('',#564);
#301=VERTEX_POINT('',#566);
#302=VERTEX_POINT('',#568);
#303=VERTEX_POINT('',#570);
#304=VERTEX_POINT('',#572);
#305=VERTEX_POINT('',#574);
#306=VERTEX_POINT('',#578);
#307=VERTEX_POINT('',#580);
#308=VERTEX_POINT('',#586);
#309=VERTEX_POINT('',#590);
#310=VERTEX_POINT('',#595);
#311=VERTEX_POINT('',#596);
#312=VERTEX_POINT('',#599);
#313=VERTEX_POINT('',#600);
#314=VERTEX_POINT('',#602);
#315=VERTEX_POINT('',#604);
#316=VERTEX_POINT('',#608);
#317=VERTEX_POINT('',#610);
#318=VERTEX_POINT('',#617);
#319=VERTEX_POINT('',#619);
#320=VERTEX_POINT('',#621);
#321=VERTEX_POINT('',#623);
#322=VERTEX_POINT('',#627);
#323=VERTEX_POINT('',#630);
#324=VERTEX_POINT('',#631);
#325=VERTEX_POINT('',#635);
#326=VERTEX_POINT('',#637);
#327=VERTEX_POINT('',#641);
#328=VERTEX_POINT('',#647);
#329=VERTEX_POINT('',#651);
#330=EDGE_CURVE('',#294,#295,#382,.T.);
#331=EDGE_CURVE('',#295,#296,#122,.T.);
#332=EDGE_CURVE('',#296,#297,#383,.T.);
#333=EDGE_CURVE('',#297,#298,#123,.T.);
#334=EDGE_CURVE('',#299,#298,#384,.T.);
#335=EDGE_CURVE('',#300,#299,#124,.T.);
#336=EDGE_CURVE('',#301,#300,#385,.T.);
#337=EDGE_CURVE('',#302,#301,#125,.T.);
#338=EDGE_CURVE('',#302,#303,#386,.T.);
#339=EDGE_CURVE('',#303,#304,#126,.T.);
#340=EDGE_CURVE('',#304,#305,#387,.T.);
#341=EDGE_CURVE('',#294,#305,#127,.T.);
#342=EDGE_CURVE('',#306,#305,#128,.T.);
#343=EDGE_CURVE('',#307,#306,#129,.T.);
#344=EDGE_CURVE('',#307,#294,#130,.T.);
#345=EDGE_CURVE('',#295,#307,#388,.T.);
#346=EDGE_CURVE('',#308,#302,#389,.T.);
#347=EDGE_CURVE('',#308,#303,#131,.T.);
#348=EDGE_CURVE('',#306,#309,#390,.T.);
#349=EDGE_CURVE('',#308,#309,#132,.T.);
#350=EDGE_CURVE('',#299,#298,#391,.T.);
#351=EDGE_CURVE('',#310,#311,#392,.T.);
#352=EDGE_CURVE('',#310,#311,#393,.T.);
#353=EDGE_CURVE('',#312,#313,#133,.T.);
#354=EDGE_CURVE('',#314,#312,#134,.T.);
#355=EDGE_CURVE('',#314,#315,#135,.T.);
#356=EDGE_CURVE('',#315,#313,#136,.T.);
#357=EDGE_CURVE('',#311,#316,#137,.T.);
#358=EDGE_CURVE('',#317,#316,#394,.T.);
#359=EDGE_CURVE('',#310,#317,#138,.T.);
#360=EDGE_CURVE('',#317,#316,#395,.T.);
#361=EDGE_CURVE('',#318,#315,#139,.T.);
#362=EDGE_CURVE('',#318,#319,#140,.T.);
#363=EDGE_CURVE('',#320,#319,#141,.T.);
#364=EDGE_CURVE('',#320,#321,#142,.T.);
#365=EDGE_CURVE('',#313,#321,#143,.T.);
#366=EDGE_CURVE('',#321,#322,#144,.T.);
#367=EDGE_CURVE('',#312,#322,#145,.T.);
#368=EDGE_CURVE('',#323,#324,#396,.T.);
#369=EDGE_CURVE('',#324,#323,#397,.T.);
#370=EDGE_CURVE('',#325,#324,#146,.T.);
#371=EDGE_CURVE('',#326,#323,#147,.T.);
#372=EDGE_CURVE('',#325,#326,#398,.T.);
#373=EDGE_CURVE('',#327,#314,#148,.T.);
#374=EDGE_CURVE('',#318,#327,#149,.T.);
#375=EDGE_CURVE('',#326,#325,#399,.T.);
#376=EDGE_CURVE('',#327,#328,#150,.T.);
#377=EDGE_CURVE('',#319,#328,#151,.T.);
#378=EDGE_CURVE('',#329,#328,#152,.T.);
#379=EDGE_CURVE('',#320,#329,#153,.T.);
#380=EDGE_CURVE('',#329,#322,#154,.T.);
#381=EDGE_CURVE('',#309,#304,#155,.T.);
#382=CIRCLE('',#401,17.5);
#383=CIRCLE('',#402,17.5);
#384=CIRCLE('',#403,17.5);
#385=CIRCLE('',#404,17.5);
#386=CIRCLE('',#405,17.5);
#387=CIRCLE('',#406,17.5);
#388=CIRCLE('',#409,17.5);
#389=CIRCLE('',#411,17.5);
#390=CIRCLE('',#413,17.5);
#391=CIRCLE('',#414,17.5);
#392=CIRCLE('',#416,9.);
#393=CIRCLE('',#417,9.);
#394=CIRCLE('',#419,9.);
#395=CIRCLE('',#421,9.);
#396=CIRCLE('',#425,1.25);
#397=CIRCLE('',#426,1.25);
#398=CIRCLE('',#428,1.25);
#399=CIRCLE('',#430,1.25);
#400=AXIS2_PLACEMENT_3D('',#551,#439,#440);
#401=AXIS2_PLACEMENT_3D('',#552,#441,#442);
#402=AXIS2_PLACEMENT_3D('',#557,#444,#445);
#403=AXIS2_PLACEMENT_3D('',#561,#447,#448);
#404=AXIS2_PLACEMENT_3D('',#565,#450,#451);
#405=AXIS2_PLACEMENT_3D('',#569,#453,#454);
#406=AXIS2_PLACEMENT_3D('',#573,#456,#457);
#407=AXIS2_PLACEMENT_3D('',#576,#459,#460);
#408=AXIS2_PLACEMENT_3D('',#582,#464,#465);
#409=AXIS2_PLACEMENT_3D('',#583,#466,#467);
#410=AXIS2_PLACEMENT_3D('',#584,#468,#469);
#411=AXIS2_PLACEMENT_3D('',#585,#470,#471);
#412=AXIS2_PLACEMENT_3D('',#588,#473,#474);
#413=AXIS2_PLACEMENT_3D('',#589,#475,#476);
#414=AXIS2_PLACEMENT_3D('',#592,#478,#479);
#415=AXIS2_PLACEMENT_3D('',#593,#480,#481);
#416=AXIS2_PLACEMENT_3D('',#594,#482,#483);
#417=AXIS2_PLACEMENT_3D('',#597,#484,#485);
#418=AXIS2_PLACEMENT_3D('',#606,#490,#491);
#419=AXIS2_PLACEMENT_3D('',#609,#493,#494);
#420=AXIS2_PLACEMENT_3D('',#612,#496,#497);
#421=AXIS2_PLACEMENT_3D('',#613,#498,#499);
#422=AXIS2_PLACEMENT_3D('',#614,#500,#501);
#423=AXIS2_PLACEMENT_3D('',#615,#502,#503);
#424=AXIS2_PLACEMENT_3D('',#625,#509,#510);
#425=AXIS2_PLACEMENT_3D('',#629,#513,#514);
#426=AXIS2_PLACEMENT_3D('',#632,#515,#516);
#427=AXIS2_PLACEMENT_3D('',#633,#517,#518);
#428=AXIS2_PLACEMENT_3D('',#638,#521,#522);
#429=AXIS2_PLACEMENT_3D('',#639,#523,#524);
#430=AXIS2_PLACEMENT_3D('',#643,#527,#528);
#431=AXIS2_PLACEMENT_3D('',#644,#529,#530);
#432=AXIS2_PLACEMENT_3D('',#645,#531,#532);
#433=AXIS2_PLACEMENT_3D('',#649,#535,#536);
#434=AXIS2_PLACEMENT_3D('',#653,#539,#540);
#435=AXIS2_PLACEMENT_3D('',#655,#542,#543);
#436=AXIS2_PLACEMENT_3D('',#656,#544,#545);
#437=AXIS2_PLACEMENT_3D('',#658,#547,#548);
#438=AXIS2_PLACEMENT_3D('',#659,#549,#550);
#439=DIRECTION('',(0.,0.,1.));
#440=DIRECTION('',(1.,0.,0.));
#441=DIRECTION('',(0.,0.,1.));
#442=DIRECTION('',(-0.485714285714305,0.87411763090161,0.));
#443=DIRECTION('',(0.,0.,1.));
#444=DIRECTION('',(0.,0.,1.));
#445=DIRECTION('',(-1.,0.,0.));
#446=DIRECTION('',(0.,0.,1.));
#447=DIRECTION('',(0.,0.,1.));
#448=DIRECTION('',(0.,1.,0.));
#449=DIRECTION('',(0.,0.,1.));
#450=DIRECTION('',(0.,0.,1.));
#451=DIRECTION('',(1.,0.,0.));
#452=DIRECTION('',(0.,0.,1.));
#453=DIRECTION('',(0.,0.,1.));
#454=DIRECTION('',(1.,0.,0.));
#455=DIRECTION('',(0.,0.,1.));
#456=DIRECTION('',(0.,0.,1.));
#457=DIRECTION('',(0.485714285714305,0.87411763090161,0.));
#458=DIRECTION('',(0.,0.,1.));
#459=DIRECTION('',(0.,0.,1.));
#460=DIRECTION('',(1.,0.,0.));
#461=DIRECTION('',(0.,1.,0.));
#462=DIRECTION('',(0.,0.,1.));
#463=DIRECTION('',(0.,1.,0.));
#464=DIRECTION('',(-1.,0.,0.));
#465=DIRECTION('',(0.,0.,1.));
#466=DIRECTION('',(0.,0.,1.));
#467=DIRECTION('',(-1.,0.,0.));
#468=DIRECTION('',(0.,0.,1.));
#469=DIRECTION('',(1.,0.,0.));
#470=DIRECTION('',(0.,0.,1.));
#471=DIRECTION('',(0.485714285714305,-0.87411763090161,0.));
#472=DIRECTION('',(0.,1.,0.));
#473=DIRECTION('',(0.,0.,1.));
#474=DIRECTION('',(1.,0.,0.));
#475=DIRECTION('',(0.,0.,1.));
#476=DIRECTION('',(-0.485714285714305,-0.87411763090161,0.));
#477=DIRECTION('',(0.,0.,1.));
#478=DIRECTION('',(0.,0.,-1.));
#479=DIRECTION('',(0.,1.,0.));
#480=DIRECTION('',(0.,0.,1.));
#481=DIRECTION('',(1.,0.,0.));
#482=DIRECTION('',(0.,0.,-1.));
#483=DIRECTION('',(0.,1.,0.));
#484=DIRECTION('',(0.,0.,1.));
#485=DIRECTION('',(0.,1.,0.));
#486=DIRECTION('',(0.,-1.,0.));
#487=DIRECTION('',(-1.,0.,0.));
#488=DIRECTION('',(0.,-1.,0.));
#489=DIRECTION('',(-1.,0.,0.));
#490=DIRECTION('',(0.,0.,1.));
#491=DIRECTION('',(0.,1.,0.));
#492=DIRECTION('',(0.,0.,1.));
#493=DIRECTION('',(0.,0.,1.));
#494=DIRECTION('',(0.,1.,0.));
#495=DIRECTION('',(0.,0.,1.));
#496=DIRECTION('',(0.,0.,1.));
#497=DIRECTION('',(1.,0.,0.));
#498=DIRECTION('',(0.,0.,-1.));
#499=DIRECTION('',(0.,1.,0.));
#500=DIRECTION('',(0.,0.,1.));
#501=DIRECTION('',(1.,0.,0.));
#502=DIRECTION('',(0.,0.,1.));
#503=DIRECTION('',(0.,1.,0.));
#504=DIRECTION('',(0.,0.,-1.));
#505=DIRECTION('',(-0.707106781186547,0.,0.707106781186547));
#506=DIRECTION('',(1.,0.,0.));
#507=DIRECTION('',(-0.707106781186547,0.,-0.707106781186547));
#508=DIRECTION('',(0.,0.,1.));
#509=DIRECTION('',(0.,1.,0.));
#510=DIRECTION('',(0.,0.,1.));
#511=DIRECTION('',(0.,1.,0.));
#512=DIRECTION('',(0.,0.,1.));
#513=DIRECTION('',(-1.,0.,0.));
#514=DIRECTION('',(0.,0.,-1.));
#515=DIRECTION('',(-1.,0.,0.));
#516=DIRECTION('',(0.,0.,1.));
#517=DIRECTION('',(-1.,0.,0.));
#518=DIRECTION('',(0.,0.,1.));
#519=DIRECTION('',(-1.,0.,0.));
#520=DIRECTION('',(-1.,0.,0.));
#521=DIRECTION('',(-1.,0.,0.));
#522=DIRECTION('',(0.,0.,1.));
#523=DIRECTION('',(-1.,0.,0.));
#524=DIRECTION('',(0.,0.,1.));
#525=DIRECTION('',(0.,0.,-1.));
#526=DIRECTION('',(0.,1.,0.));
#527=DIRECTION('',(-1.,0.,0.));
#528=DIRECTION('',(0.,0.,-1.));
#529=DIRECTION('',(1.,0.,0.));
#530=DIRECTION('',(0.,0.,-1.));
#531=DIRECTION('',(-1.,0.,0.));
#532=DIRECTION('',(0.,0.,1.));
#533=DIRECTION('',(-0.707106781186547,0.,0.707106781186547));
#534=DIRECTION('',(0.,1.,0.));
#535=DIRECTION('',(0.707106781186547,0.,0.707106781186547));
#536=DIRECTION('',(0.707106781186548,0.,-0.707106781186548));
#537=DIRECTION('',(1.,0.,0.));
#538=DIRECTION('',(0.,1.,0.));
#539=DIRECTION('',(0.,0.,1.));
#540=DIRECTION('',(1.,0.,0.));
#541=DIRECTION('',(-0.707106781186547,0.,-0.707106781186547));
#542=DIRECTION('',(-0.707106781186547,0.,0.707106781186547));
#543=DIRECTION('',(0.,1.,0.));
#544=DIRECTION('',(0.,1.,0.));
#545=DIRECTION('',(0.,0.,-1.));
#546=DIRECTION('',(0.,1.,0.));
#547=DIRECTION('',(1.,0.,0.));
#548=DIRECTION('',(0.,0.,-1.));
#549=DIRECTION('',(0.,0.,1.));
#550=DIRECTION('',(1.,0.,0.));
#551=CARTESIAN_POINT('',(0.,0.,0.));
#552=CARTESIAN_POINT('',(0.,0.,-49.));
#553=CARTESIAN_POINT('',(-8.5,15.29705854078,-49.));
#554=CARTESIAN_POINT('',(-17.5,0.,-49.));
#555=CARTESIAN_POINT('',(-17.5,0.,-49.));
#556=CARTESIAN_POINT('',(-17.5,0.,-14.));
#557=CARTESIAN_POINT('',(0.,0.,-14.));
#558=CARTESIAN_POINT('',(0.,-17.5,-14.));
#559=CARTESIAN_POINT('',(0.,-17.5,-14.));
#560=CARTESIAN_POINT('',(0.,-17.5,0.));
#561=CARTESIAN_POINT('',(0.,0.,0.));
#562=CARTESIAN_POINT('',(0.,17.5,0.));
#563=CARTESIAN_POINT('',(0.,17.5,-14.));
#564=CARTESIAN_POINT('',(0.,17.5,-14.));
#565=CARTESIAN_POINT('',(0.,0.,-14.));
#566=CARTESIAN_POINT('',(17.5,0.,-14.));
#567=CARTESIAN_POINT('',(17.5,0.,-49.));
#568=CARTESIAN_POINT('',(17.5,0.,-49.));
#569=CARTESIAN_POINT('',(0.,0.,-49.));
#570=CARTESIAN_POINT('',(8.5,15.29705854078,-49.));
#571=CARTESIAN_POINT('',(8.5,15.29705854078,-49.));
#572=CARTESIAN_POINT('',(8.5,15.29705854078,-24.));
#573=CARTESIAN_POINT('',(0.,0.,-24.));
#574=CARTESIAN_POINT('',(-8.5,15.29705854078,-24.));
#575=CARTESIAN_POINT('',(-8.5,15.29705854078,-49.));
#576=CARTESIAN_POINT('',(0.,0.,-15.7));
#577=CARTESIAN_POINT('',(-8.5,-15.29705854078,-24.));
#578=CARTESIAN_POINT('',(-8.5,-15.29705854078,-24.));
#579=CARTESIAN_POINT('',(-8.5,-15.29705854078,-49.));
#580=CARTESIAN_POINT('',(-8.5,-15.29705854078,-49.));
#581=CARTESIAN_POINT('',(-8.5,-15.29705854078,-49.));
#582=CARTESIAN_POINT('',(-8.5,-21.01729619837,-49.));
#583=CARTESIAN_POINT('',(0.,0.,-49.));
#584=CARTESIAN_POINT('',(0.,0.,-49.));
#585=CARTESIAN_POINT('',(0.,0.,-49.));
#586=CARTESIAN_POINT('',(8.5,-15.29705854078,-49.));
#587=CARTESIAN_POINT('',(8.5,-15.29705854078,-49.));
#588=CARTESIAN_POINT('',(0.,0.,-49.));
#589=CARTESIAN_POINT('',(0.,0.,-24.));
#590=CARTESIAN_POINT('',(8.5,-15.29705854078,-24.));
#591=CARTESIAN_POINT('',(8.5,-15.29705854078,-49.));
#592=CARTESIAN_POINT('',(0.,0.,0.));
#593=CARTESIAN_POINT('',(0.,0.,-15.7));
#594=CARTESIAN_POINT('',(0.,0.,0.));
#595=CARTESIAN_POINT('',(0.,9.,0.));
#596=CARTESIAN_POINT('',(0.,-9.,0.));
#597=CARTESIAN_POINT('',(0.,0.,0.));
#598=CARTESIAN_POINT('',(-4.,15.4,0.));
#599=CARTESIAN_POINT('',(-4.,15.4,0.));
#600=CARTESIAN_POINT('',(-4.,10.,0.));
#601=CARTESIAN_POINT('',(4.,15.4,0.));
#602=CARTESIAN_POINT('',(4.,15.4,0.));
#603=CARTESIAN_POINT('',(4.,15.4,0.));
#604=CARTESIAN_POINT('',(4.,10.,0.));
#605=CARTESIAN_POINT('',(4.,10.,0.));
#606=CARTESIAN_POINT('',(0.,0.,0.));
#607=CARTESIAN_POINT('',(0.,-9.,0.));
#608=CARTESIAN_POINT('',(0.,-9.,20.));
#609=CARTESIAN_POINT('',(0.,0.,20.));
#610=CARTESIAN_POINT('',(0.,9.,20.));
#611=CARTESIAN_POINT('',(0.,9.,0.));
#612=CARTESIAN_POINT('',(0.,0.,-15.7));
#613=CARTESIAN_POINT('',(0.,0.,20.));
#614=CARTESIAN_POINT('',(0.,0.,-15.7));
#615=CARTESIAN_POINT('',(0.,0.,20.));
#616=CARTESIAN_POINT('',(4.,10.,5.9));
#617=CARTESIAN_POINT('',(4.,10.,5.9));
#618=CARTESIAN_POINT('',(4.,10.,5.9));
#619=CARTESIAN_POINT('',(3.4,10.,6.5));
#620=CARTESIAN_POINT('',(-3.4,10.,6.5));
#621=CARTESIAN_POINT('',(-3.4,10.,6.5));
#622=CARTESIAN_POINT('',(-3.4,10.,6.5));
#623=CARTESIAN_POINT('',(-4.,10.,5.9));
#624=CARTESIAN_POINT('',(-4.,10.,0.));
#625=CARTESIAN_POINT('',(0.,10.,-4.5));
#626=CARTESIAN_POINT('',(-4.,10.,5.9));
#627=CARTESIAN_POINT('',(-4.,15.4,5.9));
#628=CARTESIAN_POINT('',(-4.,15.4,0.));
#629=CARTESIAN_POINT('',(-4.,13.5,4.));
#630=CARTESIAN_POINT('',(-4.,13.5,2.75));
#631=CARTESIAN_POINT('',(-4.,13.5,5.25));
#632=CARTESIAN_POINT('',(-4.,13.5,4.));
#633=CARTESIAN_POINT('',(-4.,10.,-6.));
#634=CARTESIAN_POINT('',(4.,13.5,5.25));
#635=CARTESIAN_POINT('',(4.,13.5,5.25));
#636=CARTESIAN_POINT('',(4.,13.5,2.75));
#637=CARTESIAN_POINT('',(4.,13.5,2.75));
#638=CARTESIAN_POINT('',(4.,13.5,4.));
#639=CARTESIAN_POINT('',(4.,13.5,4.));
#640=CARTESIAN_POINT('',(4.,15.4,5.9));
#641=CARTESIAN_POINT('',(4.,15.4,5.9));
#642=CARTESIAN_POINT('',(4.,10.,5.9));
#643=CARTESIAN_POINT('',(4.,13.5,4.));
#644=CARTESIAN_POINT('',(4.,10.,6.5));
#645=CARTESIAN_POINT('',(4.,13.5,4.));
#646=CARTESIAN_POINT('',(4.,15.4,5.9));
#647=CARTESIAN_POINT('',(3.4,15.4,6.5));
#648=CARTESIAN_POINT('',(3.4,10.,6.5));
#649=CARTESIAN_POINT('',(4.,10.,5.9));
#650=CARTESIAN_POINT('',(-3.4,15.4,6.5));
#651=CARTESIAN_POINT('',(-3.4,15.4,6.5));
#652=CARTESIAN_POINT('',(-3.4,10.,6.5));
#653=CARTESIAN_POINT('',(-4.,10.,6.5));
#654=CARTESIAN_POINT('',(-3.4,15.4,6.5));
#655=CARTESIAN_POINT('',(-3.4,10.,6.5));
#656=CARTESIAN_POINT('',(0.,15.4,-4.5));
#657=CARTESIAN_POINT('',(8.5,-15.29705854078,-24.));
#658=CARTESIAN_POINT('',(8.5,-21.01729619837,-24.));
#659=CARTESIAN_POINT('',(-8.5,-21.01729619837,-24.));
#660=MECHANICAL_DESIGN_GEOMETRIC_PRESENTATION_REPRESENTATION('',(#24),#661);
#661=(
GEOMETRIC_REPRESENTATION_CONTEXT(3)
GLOBAL_UNCERTAINTY_ASSIGNED_CONTEXT((#662))
GLOBAL_UNIT_ASSIGNED_CONTEXT((#668,#664,#663))
REPRESENTATION_CONTEXT('A75030','TOP_LEVEL_ASSEMBLY_PART')
);
#662=UNCERTAINTY_MEASURE_WITH_UNIT(LENGTH_MEASURE(2.E-005),#668,
'DISTANCE_ACCURACY_VALUE','Maximum Tolerance applied to model');
#663=(
NAMED_UNIT(*)
SI_UNIT($,.STERADIAN.)
SOLID_ANGLE_UNIT()
);
#664=(
CONVERSION_BASED_UNIT('DEGREE',#666)
NAMED_UNIT(#665)
PLANE_ANGLE_UNIT()
);
#665=DIMENSIONAL_EXPONENTS(0.,0.,0.,0.,0.,0.,0.);
#666=PLANE_ANGLE_MEASURE_WITH_UNIT(PLANE_ANGLE_MEASURE(0.0174532925),#667);
#667=(
NAMED_UNIT(*)
PLANE_ANGLE_UNIT()
SI_UNIT($,.RADIAN.)
);
#668=(
LENGTH_UNIT()
NAMED_UNIT(*)
SI_UNIT(.MILLI.,.METRE.)
);
ENDSEC;
END-ISO-10303-21;
