ISO-10303-21;
HEADER;
/* Generated by software containing ST-Developer
 * from STEP Tools, Inc. (www.steptools.com) 
 */
/* OPTION: using custom schema-name function */

FILE_DESCRIPTION(
/* description */ (''),
/* implementation_level */ '2;1');

FILE_NAME(
/* name */ 'A75020.stp',
/* time_stamp */ '2017-10-26T08:10:27+06:00',
/* author */ (''),
/* organization */ (''),
/* preprocessor_version */ 'ST-DEVELOPER v16',
/* originating_system */ 'SIEMENS PLM Software NX 11.0',
/* authorisation */ '');

FILE_SCHEMA (('AUTOMOTIVE_DESIGN { 1 0 10303 214 3 1 1 1 }'));
ENDSEC;

DATA;
#10=CONSTRUCTIVE_GEOMETRY_REPRESENTATION_RELATIONSHIP(
'supplemental geometry','',#32,#11);
#11=CONSTRUCTIVE_GEOMETRY_REPRESENTATION('supplemental geometry',(#372,
#373,#374,#375),#623);
#12=PROPERTY_DEFINITION_REPRESENTATION(#16,#14);
#13=PROPERTY_DEFINITION_REPRESENTATION(#17,#15);
#14=REPRESENTATION('',(#18),#623);
#15=REPRESENTATION('',(#19),#623);
#16=PROPERTY_DEFINITION('pmi validation property','',#23);
#17=PROPERTY_DEFINITION('pmi validation property','',#23);
#18=VALUE_REPRESENTATION_ITEM('number of annotations',COUNT_MEASURE(0.));
#19=VALUE_REPRESENTATION_ITEM('number of views',COUNT_MEASURE(0.));
#20=SHAPE_REPRESENTATION_RELATIONSHIP('None',
'relationship between A75020-None and A75020-None',#32,#21);
#21=ADVANCED_BREP_SHAPE_REPRESENTATION('A75020-None',(#103,#104,#105),#623);
#22=SHAPE_DEFINITION_REPRESENTATION(#23,#32);
#23=PRODUCT_DEFINITION_SHAPE('','',#24);
#24=PRODUCT_DEFINITION(' ','',#26,#25);
#25=PRODUCT_DEFINITION_CONTEXT('part definition',#31,'design');
#26=PRODUCT_DEFINITION_FORMATION_WITH_SPECIFIED_SOURCE(' ',' ',#28,
 .NOT_KNOWN.);
#27=PRODUCT_RELATED_PRODUCT_CATEGORY('part','',(#28));
#28=PRODUCT('A75020','A75020',' ',(#29));
#29=PRODUCT_CONTEXT(' ',#31,'mechanical');
#30=APPLICATION_PROTOCOL_DEFINITION('international standard',
'automotive_design',2010,#31);
#31=APPLICATION_CONTEXT(
'core data for automotive mechanical design processes');
#32=SHAPE_REPRESENTATION('A75020-None',(#371),#623);
#33=B_SPLINE_CURVE_WITH_KNOTS('',3,(#544,#545,#546,#547,#548,#549,#550,
#551,#552,#553,#554,#555,#556,#557,#558,#559,#560,#561,#562,#563,#564,#565,
#566,#567,#568,#569,#570,#571,#572,#573,#574),.UNSPECIFIED.,.F.,.F.,(4,
3,3,3,3,3,3,3,3,3,4),(0.,0.0834307985955541,0.19184161878553,0.298734018416288,
0.403523388762951,0.508706951927868,0.616269004837416,0.724540521221448,
0.830689429000619,0.935149712518166,1.),.UNSPECIFIED.);
#34=LINE('',#515,#61);
#35=LINE('',#518,#62);
#36=LINE('',#520,#63);
#37=LINE('',#522,#64);
#38=LINE('',#528,#65);
#39=LINE('',#532,#66);
#40=LINE('',#536,#67);
#41=LINE('',#537,#68);
#42=LINE('',#542,#69);
#43=LINE('',#576,#70);
#44=LINE('',#578,#71);
#45=LINE('',#580,#72);
#46=LINE('',#582,#73);
#47=LINE('',#586,#74);
#48=LINE('',#588,#75);
#49=LINE('',#590,#76);
#50=LINE('',#592,#77);
#51=LINE('',#596,#78);
#52=LINE('',#599,#79);
#53=LINE('',#603,#80);
#54=LINE('',#605,#81);
#55=LINE('',#607,#82);
#56=LINE('',#609,#83);
#57=LINE('',#611,#84);
#58=LINE('',#613,#85);
#59=LINE('',#615,#86);
#60=LINE('',#617,#87);
#61=VECTOR('',#426,1.);
#62=VECTOR('',#427,1.);
#63=VECTOR('',#428,1.);
#64=VECTOR('',#429,1.);
#65=VECTOR('',#438,1.);
#66=VECTOR('',#443,1.);
#67=VECTOR('',#446,1.);
#68=VECTOR('',#447,1.);
#69=VECTOR('',#450,1.);
#70=VECTOR('',#453,1.);
#71=VECTOR('',#454,1.);
#72=VECTOR('',#455,1.);
#73=VECTOR('',#458,1.);
#74=VECTOR('',#463,1.);
#75=VECTOR('',#464,1.);
#76=VECTOR('',#467,1.);
#77=VECTOR('',#470,1.);
#78=VECTOR('',#477,1.);
#79=VECTOR('',#478,1.);
#80=VECTOR('',#481,1.);
#81=VECTOR('',#484,1.);
#82=VECTOR('',#485,1.);
#83=VECTOR('',#486,1.);
#84=VECTOR('',#489,1.);
#85=VECTOR('',#490,1.);
#86=VECTOR('',#493,1.);
#87=VECTOR('',#494,1.);
#88=SURFACE_STYLE_USAGE(.BOTH.,#91);
#89=SURFACE_STYLE_USAGE(.BOTH.,#92);
#90=SURFACE_STYLE_USAGE(.BOTH.,#93);
#91=SURFACE_SIDE_STYLE('',(#94));
#92=SURFACE_SIDE_STYLE('',(#95));
#93=SURFACE_SIDE_STYLE('',(#96));
#94=SURFACE_STYLE_FILL_AREA(#97);
#95=SURFACE_STYLE_FILL_AREA(#98);
#96=SURFACE_STYLE_FILL_AREA(#99);
#97=FILL_AREA_STYLE('',(#100));
#98=FILL_AREA_STYLE('',(#101));
#99=FILL_AREA_STYLE('',(#102));
#100=FILL_AREA_STYLE_COLOUR('',#365);
#101=FILL_AREA_STYLE_COLOUR('',#365);
#102=FILL_AREA_STYLE_COLOUR('',#366);
#103=MANIFOLD_SOLID_BREP('NOCUT',#106);
#104=MANIFOLD_SOLID_BREP('NOCUT',#107);
#105=MANIFOLD_SOLID_BREP('NOCUT',#108);
#106=CLOSED_SHELL('',(#117,#118,#119));
#107=CLOSED_SHELL('',(#120,#121,#122,#123,#124,#125,#126,#127,#128,#129,
#130));
#108=CLOSED_SHELL('',(#131,#132,#133,#134,#135,#136));
#109=CYLINDRICAL_SURFACE('',#379,7.);
#110=CYLINDRICAL_SURFACE('',#389,13.5);
#111=CYLINDRICAL_SURFACE('',#392,3.01);
#112=CYLINDRICAL_SURFACE('',#404,3.);
#113=FACE_BOUND('',#172,.T.);
#114=FACE_BOUND('',#173,.T.);
#115=FACE_BOUND('',#178,.T.);
#116=FACE_BOUND('',#179,.T.);
#117=ADVANCED_FACE('',(#153),#137,.F.);
#118=ADVANCED_FACE('',(#113,#114),#109,.T.);
#119=ADVANCED_FACE('',(#154),#138,.F.);
#120=ADVANCED_FACE('',(#155),#139,.F.);
#121=ADVANCED_FACE('',(#156),#140,.T.);
#122=ADVANCED_FACE('',(#157),#141,.F.);
#123=ADVANCED_FACE('',(#115,#116),#110,.T.);
#124=ADVANCED_FACE('',(#158),#142,.F.);
#125=ADVANCED_FACE('',(#159),#111,.F.);
#126=ADVANCED_FACE('',(#160),#143,.T.);
#127=ADVANCED_FACE('',(#161),#144,.F.);
#128=ADVANCED_FACE('',(#162),#145,.F.);
#129=ADVANCED_FACE('',(#163),#146,.T.);
#130=ADVANCED_FACE('',(#164),#147,.F.);
#131=ADVANCED_FACE('',(#165),#148,.F.);
#132=ADVANCED_FACE('',(#166),#149,.T.);
#133=ADVANCED_FACE('',(#167),#150,.T.);
#134=ADVANCED_FACE('',(#168),#151,.T.);
#135=ADVANCED_FACE('',(#169),#112,.T.);
#136=ADVANCED_FACE('',(#170),#152,.T.);
#137=PLANE('',#377);
#138=PLANE('',#380);
#139=PLANE('',#381);
#140=PLANE('',#383);
#141=PLANE('',#386);
#142=PLANE('',#390);
#143=PLANE('',#393);
#144=PLANE('',#394);
#145=PLANE('',#395);
#146=PLANE('',#396);
#147=PLANE('',#397);
#148=PLANE('',#399);
#149=PLANE('',#400);
#150=PLANE('',#401);
#151=PLANE('',#402);
#152=PLANE('',#405);
#153=FACE_OUTER_BOUND('',#171,.T.);
#154=FACE_OUTER_BOUND('',#174,.T.);
#155=FACE_OUTER_BOUND('',#175,.T.);
#156=FACE_OUTER_BOUND('',#176,.T.);
#157=FACE_OUTER_BOUND('',#177,.T.);
#158=FACE_OUTER_BOUND('',#180,.T.);
#159=FACE_OUTER_BOUND('',#181,.T.);
#160=FACE_OUTER_BOUND('',#182,.T.);
#161=FACE_OUTER_BOUND('',#183,.T.);
#162=FACE_OUTER_BOUND('',#184,.T.);
#163=FACE_OUTER_BOUND('',#185,.T.);
#164=FACE_OUTER_BOUND('',#186,.T.);
#165=FACE_OUTER_BOUND('',#187,.T.);
#166=FACE_OUTER_BOUND('',#188,.T.);
#167=FACE_OUTER_BOUND('',#189,.T.);
#168=FACE_OUTER_BOUND('',#190,.T.);
#169=FACE_OUTER_BOUND('',#191,.T.);
#170=FACE_OUTER_BOUND('',#192,.T.);
#171=EDGE_LOOP('',(#193));
#172=EDGE_LOOP('',(#194));
#173=EDGE_LOOP('',(#195));
#174=EDGE_LOOP('',(#196));
#175=EDGE_LOOP('',(#197,#198,#199,#200));
#176=EDGE_LOOP('',(#201,#202));
#177=EDGE_LOOP('',(#203,#204,#205,#206));
#178=EDGE_LOOP('',(#207,#208,#209,#210,#211,#212,#213,#214));
#179=EDGE_LOOP('',(#215,#216,#217,#218));
#180=EDGE_LOOP('',(#219,#220,#221,#222));
#181=EDGE_LOOP('',(#223,#224,#225,#226));
#182=EDGE_LOOP('',(#227,#228,#229,#230));
#183=EDGE_LOOP('',(#231,#232,#233,#234));
#184=EDGE_LOOP('',(#235,#236,#237,#238));
#185=EDGE_LOOP('',(#239,#240));
#186=EDGE_LOOP('',(#241,#242,#243,#244));
#187=EDGE_LOOP('',(#245,#246,#247,#248));
#188=EDGE_LOOP('',(#249,#250,#251,#252));
#189=EDGE_LOOP('',(#253,#254,#255,#256));
#190=EDGE_LOOP('',(#257,#258,#259,#260));
#191=EDGE_LOOP('',(#261,#262,#263,#264));
#192=EDGE_LOOP('',(#265,#266,#267,#268));
#193=ORIENTED_EDGE('',*,*,#295,.F.);
#194=ORIENTED_EDGE('',*,*,#296,.F.);
#195=ORIENTED_EDGE('',*,*,#295,.T.);
#196=ORIENTED_EDGE('',*,*,#296,.T.);
#197=ORIENTED_EDGE('',*,*,#297,.F.);
#198=ORIENTED_EDGE('',*,*,#298,.T.);
#199=ORIENTED_EDGE('',*,*,#299,.F.);
#200=ORIENTED_EDGE('',*,*,#300,.T.);
#201=ORIENTED_EDGE('',*,*,#301,.T.);
#202=ORIENTED_EDGE('',*,*,#297,.T.);
#203=ORIENTED_EDGE('',*,*,#299,.T.);
#204=ORIENTED_EDGE('',*,*,#302,.F.);
#205=ORIENTED_EDGE('',*,*,#303,.F.);
#206=ORIENTED_EDGE('',*,*,#304,.F.);
#207=ORIENTED_EDGE('',*,*,#304,.T.);
#208=ORIENTED_EDGE('',*,*,#305,.F.);
#209=ORIENTED_EDGE('',*,*,#306,.F.);
#210=ORIENTED_EDGE('',*,*,#307,.F.);
#211=ORIENTED_EDGE('',*,*,#302,.T.);
#212=ORIENTED_EDGE('',*,*,#298,.F.);
#213=ORIENTED_EDGE('',*,*,#301,.F.);
#214=ORIENTED_EDGE('',*,*,#300,.F.);
#215=ORIENTED_EDGE('',*,*,#308,.T.);
#216=ORIENTED_EDGE('',*,*,#309,.T.);
#217=ORIENTED_EDGE('',*,*,#310,.T.);
#218=ORIENTED_EDGE('',*,*,#311,.T.);
#219=ORIENTED_EDGE('',*,*,#312,.T.);
#220=ORIENTED_EDGE('',*,*,#308,.F.);
#221=ORIENTED_EDGE('',*,*,#313,.T.);
#222=ORIENTED_EDGE('',*,*,#314,.T.);
#223=ORIENTED_EDGE('',*,*,#311,.F.);
#224=ORIENTED_EDGE('',*,*,#315,.T.);
#225=ORIENTED_EDGE('',*,*,#316,.T.);
#226=ORIENTED_EDGE('',*,*,#313,.F.);
#227=ORIENTED_EDGE('',*,*,#316,.F.);
#228=ORIENTED_EDGE('',*,*,#317,.F.);
#229=ORIENTED_EDGE('',*,*,#318,.F.);
#230=ORIENTED_EDGE('',*,*,#314,.F.);
#231=ORIENTED_EDGE('',*,*,#319,.T.);
#232=ORIENTED_EDGE('',*,*,#309,.F.);
#233=ORIENTED_EDGE('',*,*,#312,.F.);
#234=ORIENTED_EDGE('',*,*,#318,.T.);
#235=ORIENTED_EDGE('',*,*,#303,.T.);
#236=ORIENTED_EDGE('',*,*,#307,.T.);
#237=ORIENTED_EDGE('',*,*,#320,.F.);
#238=ORIENTED_EDGE('',*,*,#305,.T.);
#239=ORIENTED_EDGE('',*,*,#320,.T.);
#240=ORIENTED_EDGE('',*,*,#306,.T.);
#241=ORIENTED_EDGE('',*,*,#310,.F.);
#242=ORIENTED_EDGE('',*,*,#319,.F.);
#243=ORIENTED_EDGE('',*,*,#317,.T.);
#244=ORIENTED_EDGE('',*,*,#315,.F.);
#245=ORIENTED_EDGE('',*,*,#321,.F.);
#246=ORIENTED_EDGE('',*,*,#322,.F.);
#247=ORIENTED_EDGE('',*,*,#323,.F.);
#248=ORIENTED_EDGE('',*,*,#324,.F.);
#249=ORIENTED_EDGE('',*,*,#325,.T.);
#250=ORIENTED_EDGE('',*,*,#326,.F.);
#251=ORIENTED_EDGE('',*,*,#327,.F.);
#252=ORIENTED_EDGE('',*,*,#324,.T.);
#253=ORIENTED_EDGE('',*,*,#327,.T.);
#254=ORIENTED_EDGE('',*,*,#328,.F.);
#255=ORIENTED_EDGE('',*,*,#329,.F.);
#256=ORIENTED_EDGE('',*,*,#321,.T.);
#257=ORIENTED_EDGE('',*,*,#329,.T.);
#258=ORIENTED_EDGE('',*,*,#330,.F.);
#259=ORIENTED_EDGE('',*,*,#331,.F.);
#260=ORIENTED_EDGE('',*,*,#322,.T.);
#261=ORIENTED_EDGE('',*,*,#331,.T.);
#262=ORIENTED_EDGE('',*,*,#332,.F.);
#263=ORIENTED_EDGE('',*,*,#325,.F.);
#264=ORIENTED_EDGE('',*,*,#323,.T.);
#265=ORIENTED_EDGE('',*,*,#332,.T.);
#266=ORIENTED_EDGE('',*,*,#330,.T.);
#267=ORIENTED_EDGE('',*,*,#328,.T.);
#268=ORIENTED_EDGE('',*,*,#326,.T.);
#269=VERTEX_POINT('',#509);
#270=VERTEX_POINT('',#512);
#271=VERTEX_POINT('',#516);
#272=VERTEX_POINT('',#517);
#273=VERTEX_POINT('',#519);
#274=VERTEX_POINT('',#521);
#275=VERTEX_POINT('',#527);
#276=VERTEX_POINT('',#529);
#277=VERTEX_POINT('',#533);
#278=VERTEX_POINT('',#535);
#279=VERTEX_POINT('',#538);
#280=VERTEX_POINT('',#539);
#281=VERTEX_POINT('',#541);
#282=VERTEX_POINT('',#543);
#283=VERTEX_POINT('',#577);
#284=VERTEX_POINT('',#579);
#285=VERTEX_POINT('',#583);
#286=VERTEX_POINT('',#587);
#287=VERTEX_POINT('',#597);
#288=VERTEX_POINT('',#598);
#289=VERTEX_POINT('',#600);
#290=VERTEX_POINT('',#602);
#291=VERTEX_POINT('',#606);
#292=VERTEX_POINT('',#608);
#293=VERTEX_POINT('',#612);
#294=VERTEX_POINT('',#616);
#295=EDGE_CURVE('',#269,#269,#333,.T.);
#296=EDGE_CURVE('',#270,#270,#334,.T.);
#297=EDGE_CURVE('',#271,#272,#34,.T.);
#298=EDGE_CURVE('',#271,#273,#35,.T.);
#299=EDGE_CURVE('',#274,#273,#36,.T.);
#300=EDGE_CURVE('',#274,#272,#37,.T.);
#301=EDGE_CURVE('',#272,#271,#335,.T.);
#302=EDGE_CURVE('',#275,#273,#336,.T.);
#303=EDGE_CURVE('',#276,#275,#38,.T.);
#304=EDGE_CURVE('',#274,#276,#337,.T.);
#305=EDGE_CURVE('',#277,#276,#39,.T.);
#306=EDGE_CURVE('',#278,#277,#338,.T.);
#307=EDGE_CURVE('',#275,#278,#40,.T.);
#308=EDGE_CURVE('',#279,#280,#41,.T.);
#309=EDGE_CURVE('',#280,#281,#339,.T.);
#310=EDGE_CURVE('',#281,#282,#42,.T.);
#311=EDGE_CURVE('',#282,#279,#33,.T.);
#312=EDGE_CURVE('',#283,#280,#43,.T.);
#313=EDGE_CURVE('',#279,#284,#44,.T.);
#314=EDGE_CURVE('',#284,#283,#45,.T.);
#315=EDGE_CURVE('',#282,#285,#46,.T.);
#316=EDGE_CURVE('',#285,#284,#340,.T.);
#317=EDGE_CURVE('',#286,#285,#47,.T.);
#318=EDGE_CURVE('',#283,#286,#48,.T.);
#319=EDGE_CURVE('',#286,#281,#49,.T.);
#320=EDGE_CURVE('',#277,#278,#50,.T.);
#321=EDGE_CURVE('',#287,#288,#51,.T.);
#322=EDGE_CURVE('',#289,#287,#52,.T.);
#323=EDGE_CURVE('',#290,#289,#341,.T.);
#324=EDGE_CURVE('',#288,#290,#53,.T.);
#325=EDGE_CURVE('',#290,#291,#54,.T.);
#326=EDGE_CURVE('',#292,#291,#55,.T.);
#327=EDGE_CURVE('',#288,#292,#56,.T.);
#328=EDGE_CURVE('',#293,#292,#57,.T.);
#329=EDGE_CURVE('',#287,#293,#58,.T.);
#330=EDGE_CURVE('',#294,#293,#59,.T.);
#331=EDGE_CURVE('',#289,#294,#60,.T.);
#332=EDGE_CURVE('',#291,#294,#342,.T.);
#333=CIRCLE('',#376,7.);
#334=CIRCLE('',#378,7.);
#335=CIRCLE('',#382,13.5);
#336=CIRCLE('',#384,13.5);
#337=CIRCLE('',#385,13.5);
#338=CIRCLE('',#387,13.5);
#339=CIRCLE('',#388,13.5);
#340=CIRCLE('',#391,3.01);
#341=CIRCLE('',#398,3.);
#342=CIRCLE('',#403,3.);
#343=PRESENTATION_LAYER_ASSIGNMENT('1','Layer 1',(#372,#373,#374,#375,#103));
#344=PRESENTATION_LAYER_ASSIGNMENT('2','Layer 2',(#104));
#345=PRESENTATION_LAYER_ASSIGNMENT('4','Layer 4',(#105));
#346=STYLED_ITEM('',(#353),#372);
#347=STYLED_ITEM('',(#354),#373);
#348=STYLED_ITEM('',(#355),#374);
#349=STYLED_ITEM('',(#356),#375);
#350=STYLED_ITEM('',(#357),#103);
#351=STYLED_ITEM('',(#358),#104);
#352=STYLED_ITEM('',(#359),#105);
#353=PRESENTATION_STYLE_ASSIGNMENT((#360));
#354=PRESENTATION_STYLE_ASSIGNMENT((#361));
#355=PRESENTATION_STYLE_ASSIGNMENT((#362));
#356=PRESENTATION_STYLE_ASSIGNMENT((#363));
#357=PRESENTATION_STYLE_ASSIGNMENT((#88));
#358=PRESENTATION_STYLE_ASSIGNMENT((#89));
#359=PRESENTATION_STYLE_ASSIGNMENT((#90));
#360=CURVE_STYLE('',#367,POSITIVE_LENGTH_MEASURE(0.18),#364);
#361=CURVE_STYLE('',#368,POSITIVE_LENGTH_MEASURE(0.18),#364);
#362=CURVE_STYLE('',#369,POSITIVE_LENGTH_MEASURE(0.18),#364);
#363=CURVE_STYLE('',#370,POSITIVE_LENGTH_MEASURE(0.18),#364);
#364=COLOUR_RGB('Strong Stone',0.576470588235294,0.54508278019379,0.392156862745098);
#365=COLOUR_RGB('Medium Gray',0.490196078431373,0.490196078431373,0.490196078431373);
#366=COLOUR_RGB('Iron Gray',0.298023956664378,0.298023956664378,0.298023956664378);
#367=DRAUGHTING_PRE_DEFINED_CURVE_FONT('continuous');
#368=DRAUGHTING_PRE_DEFINED_CURVE_FONT('continuous');
#369=DRAUGHTING_PRE_DEFINED_CURVE_FONT('continuous');
#370=DRAUGHTING_PRE_DEFINED_CURVE_FONT('continuous');
#371=AXIS2_PLACEMENT_3D('',#503,#406,#407);
#372=AXIS2_PLACEMENT_3D('PCS',#504,#408,#409);
#373=AXIS2_PLACEMENT_3D('MCS',#505,#410,#411);
#374=AXIS2_PLACEMENT_3D('CSW2',#506,#412,#413);
#375=AXIS2_PLACEMENT_3D('CSW1',#507,#414,#415);
#376=AXIS2_PLACEMENT_3D('',#508,#416,#417);
#377=AXIS2_PLACEMENT_3D('',#510,#418,#419);
#378=AXIS2_PLACEMENT_3D('',#511,#420,#421);
#379=AXIS2_PLACEMENT_3D('',#513,#422,#423);
#380=AXIS2_PLACEMENT_3D('',#514,#424,#425);
#381=AXIS2_PLACEMENT_3D('',#523,#430,#431);
#382=AXIS2_PLACEMENT_3D('',#524,#432,#433);
#383=AXIS2_PLACEMENT_3D('',#525,#434,#435);
#384=AXIS2_PLACEMENT_3D('',#526,#436,#437);
#385=AXIS2_PLACEMENT_3D('',#530,#439,#440);
#386=AXIS2_PLACEMENT_3D('',#531,#441,#442);
#387=AXIS2_PLACEMENT_3D('',#534,#444,#445);
#388=AXIS2_PLACEMENT_3D('',#540,#448,#449);
#389=AXIS2_PLACEMENT_3D('',#575,#451,#452);
#390=AXIS2_PLACEMENT_3D('',#581,#456,#457);
#391=AXIS2_PLACEMENT_3D('',#584,#459,#460);
#392=AXIS2_PLACEMENT_3D('',#585,#461,#462);
#393=AXIS2_PLACEMENT_3D('',#589,#465,#466);
#394=AXIS2_PLACEMENT_3D('',#591,#468,#469);
#395=AXIS2_PLACEMENT_3D('',#593,#471,#472);
#396=AXIS2_PLACEMENT_3D('',#594,#473,#474);
#397=AXIS2_PLACEMENT_3D('',#595,#475,#476);
#398=AXIS2_PLACEMENT_3D('',#601,#479,#480);
#399=AXIS2_PLACEMENT_3D('',#604,#482,#483);
#400=AXIS2_PLACEMENT_3D('',#610,#487,#488);
#401=AXIS2_PLACEMENT_3D('',#614,#491,#492);
#402=AXIS2_PLACEMENT_3D('',#618,#495,#496);
#403=AXIS2_PLACEMENT_3D('',#619,#497,#498);
#404=AXIS2_PLACEMENT_3D('',#620,#499,#500);
#405=AXIS2_PLACEMENT_3D('',#621,#501,#502);
#406=DIRECTION('',(0.,0.,1.));
#407=DIRECTION('',(1.,0.,0.));
#408=DIRECTION('',(0.,0.,1.));
#409=DIRECTION('',(1.,0.,0.));
#410=DIRECTION('',(0.,0.,1.));
#411=DIRECTION('',(1.,0.,0.));
#412=DIRECTION('',(0.,0.,1.));
#413=DIRECTION('',(1.,0.,0.));
#414=DIRECTION('',(-3.76904490116571E-31,-5.07111373857838E-15,1.));
#415=DIRECTION('',(-1.,1.51267887105178E-15,7.29406211493134E-30));
#416=DIRECTION('',(0.,0.,-1.));
#417=DIRECTION('',(0.,-1.,0.));
#418=DIRECTION('',(0.,0.,-1.));
#419=DIRECTION('',(-1.,0.,0.));
#420=DIRECTION('',(0.,0.,-1.));
#421=DIRECTION('',(0.,-1.,0.));
#422=DIRECTION('',(0.,0.,-1.));
#423=DIRECTION('',(-1.,0.,0.));
#424=DIRECTION('',(0.,0.,1.));
#425=DIRECTION('',(0.,1.,0.));
#426=DIRECTION('',(-1.,0.,0.));
#427=DIRECTION('',(0.,0.,1.));
#428=DIRECTION('',(1.,0.,0.));
#429=DIRECTION('',(0.,0.,-1.));
#430=DIRECTION('',(0.,1.,0.));
#431=DIRECTION('',(0.,0.,1.));
#432=DIRECTION('',(0.,0.,-1.));
#433=DIRECTION('',(0.,-1.,0.));
#434=DIRECTION('',(0.,0.,-1.));
#435=DIRECTION('',(0.,1.,0.));
#436=DIRECTION('',(0.,0.,1.));
#437=DIRECTION('',(0.,1.,0.));
#438=DIRECTION('',(1.,0.,0.));
#439=DIRECTION('',(0.,0.,1.));
#440=DIRECTION('',(0.,1.,0.));
#441=DIRECTION('',(0.,0.,1.));
#442=DIRECTION('',(0.,-1.,0.));
#443=DIRECTION('',(0.,0.,1.));
#444=DIRECTION('',(0.,0.,-1.));
#445=DIRECTION('',(0.,-1.,0.));
#446=DIRECTION('',(0.,0.,-1.));
#447=DIRECTION('',(0.,0.,1.));
#448=DIRECTION('',(0.,0.,-1.));
#449=DIRECTION('',(-1.,0.,0.));
#450=DIRECTION('',(0.,0.,-1.));
#451=DIRECTION('',(0.,0.,-1.));
#452=DIRECTION('',(-1.,0.,0.));
#453=DIRECTION('',(-1.,0.,0.));
#454=DIRECTION('',(1.,0.,-3.348216266116E-11));
#455=DIRECTION('',(0.,0.,1.));
#456=DIRECTION('',(0.,1.,0.));
#457=DIRECTION('',(0.,0.,1.));
#458=DIRECTION('',(1.,0.,-3.218444183394E-11));
#459=DIRECTION('',(1.,0.,0.));
#460=DIRECTION('',(0.,-1.,0.));
#461=DIRECTION('',(-1.,0.,0.));
#462=DIRECTION('',(0.,0.,1.));
#463=DIRECTION('',(0.,0.,-1.));
#464=DIRECTION('',(0.,-1.,0.));
#465=DIRECTION('',(-1.,0.,0.));
#466=DIRECTION('',(0.,0.,1.));
#467=DIRECTION('',(-1.,0.,0.));
#468=DIRECTION('',(0.,0.,-1.));
#469=DIRECTION('',(-1.,0.,0.));
#470=DIRECTION('',(1.,0.,0.));
#471=DIRECTION('',(0.,-1.,0.));
#472=DIRECTION('',(0.,0.,-1.));
#473=DIRECTION('',(0.,0.,-1.));
#474=DIRECTION('',(0.,1.,0.));
#475=DIRECTION('',(0.,-1.,0.));
#476=DIRECTION('',(0.,0.,-1.));
#477=DIRECTION('',(0.,1.,0.));
#478=DIRECTION('',(0.,0.,1.));
#479=DIRECTION('',(-1.,0.,0.));
#480=DIRECTION('',(0.,1.,0.));
#481=DIRECTION('',(0.,0.,-1.));
#482=DIRECTION('',(-1.,0.,0.));
#483=DIRECTION('',(0.,0.,1.));
#484=DIRECTION('',(-1.,0.,0.));
#485=DIRECTION('',(0.,0.,-1.));
#486=DIRECTION('',(-1.,0.,0.));
#487=DIRECTION('',(0.,1.,0.));
#488=DIRECTION('',(0.,0.,1.));
#489=DIRECTION('',(0.,1.,0.));
#490=DIRECTION('',(-1.,0.,0.));
#491=DIRECTION('',(0.,0.,1.));
#492=DIRECTION('',(0.,-1.,0.));
#493=DIRECTION('',(0.,0.,1.));
#494=DIRECTION('',(-1.,0.,0.));
#495=DIRECTION('',(0.,-1.,0.));
#496=DIRECTION('',(0.,0.,-1.));
#497=DIRECTION('',(-1.,0.,0.));
#498=DIRECTION('',(0.,1.,0.));
#499=DIRECTION('',(-1.,0.,0.));
#500=DIRECTION('',(0.,0.,1.));
#501=DIRECTION('',(-1.,0.,0.));
#502=DIRECTION('',(0.,0.,1.));
#503=CARTESIAN_POINT('',(0.,0.,0.));
#504=CARTESIAN_POINT('',(0.,0.,0.));
#505=CARTESIAN_POINT('',(0.,0.,0.));
#506=CARTESIAN_POINT('',(2.49454011836948,-6.75,-15.9999999999997));
#507=CARTESIAN_POINT('',(-2.49454011836946,6.75000000000001,-15.9999999999997));
#508=CARTESIAN_POINT('',(0.,0.,16.));
#509=CARTESIAN_POINT('',(0.,-7.,16.));
#510=CARTESIAN_POINT('',(0.,0.,16.));
#511=CARTESIAN_POINT('',(0.,0.,0.));
#512=CARTESIAN_POINT('',(0.,-7.,0.));
#513=CARTESIAN_POINT('',(0.,0.,17.2));
#514=CARTESIAN_POINT('',(0.,0.,0.));
#515=CARTESIAN_POINT('',(16.20135264625,6.75,-35.));
#516=CARTESIAN_POINT('',(11.6913429510899,6.75,-35.));
#517=CARTESIAN_POINT('',(-11.6913429510899,6.75,-35.));
#518=CARTESIAN_POINT('',(11.6913429510899,6.75,17.2));
#519=CARTESIAN_POINT('',(11.6913429510899,6.75,-16.));
#520=CARTESIAN_POINT('',(16.20135264625,6.75,-16.));
#521=CARTESIAN_POINT('',(-11.6913429510899,6.75,-16.));
#522=CARTESIAN_POINT('',(-11.6913429510899,6.75,17.2));
#523=CARTESIAN_POINT('',(16.20135264625,6.75,-16.4));
#524=CARTESIAN_POINT('',(0.,0.,-35.));
#525=CARTESIAN_POINT('',(0.,0.,-35.));
#526=CARTESIAN_POINT('',(0.,0.,-16.));
#527=CARTESIAN_POINT('',(11.6913429510899,-6.75,-16.));
#528=CARTESIAN_POINT('',(16.20135264625,-6.75,-16.));
#529=CARTESIAN_POINT('',(-11.6913429510899,-6.75,-16.));
#530=CARTESIAN_POINT('',(0.,0.,-16.));
#531=CARTESIAN_POINT('',(16.20135264625,-6.35,-16.));
#532=CARTESIAN_POINT('',(-11.6913429510899,-6.75,17.2));
#533=CARTESIAN_POINT('',(-11.6913429510899,-6.75,-35.));
#534=CARTESIAN_POINT('',(0.,0.,-35.));
#535=CARTESIAN_POINT('',(11.6913429510899,-6.75,-35.));
#536=CARTESIAN_POINT('',(11.6913429510899,-6.75,17.2));
#537=CARTESIAN_POINT('',(-13.1601633728461,3.01,17.2));
#538=CARTESIAN_POINT('',(-13.1601633728461,3.01,-2.98999999980371));
#539=CARTESIAN_POINT('',(-13.1601633728461,3.01,0.));
#540=CARTESIAN_POINT('',(0.,0.,0.));
#541=CARTESIAN_POINT('',(-13.1601633728461,-3.01,0.));
#542=CARTESIAN_POINT('',(-13.1601633728461,-3.01,17.2));
#543=CARTESIAN_POINT('',(-13.1601633728461,-3.01,-2.98999999981103));
#544=CARTESIAN_POINT('',(-13.1601633728461,-3.01,-2.98999999981103));
#545=CARTESIAN_POINT('',(-13.1601633728423,-3.01000000001657,-3.2538983040562));
#546=CARTESIAN_POINT('',(-13.1683887704716,-2.97463967866644,-3.52012452494325));
#547=CARTESIAN_POINT('',(-13.1835243292778,-2.90597423583565,-3.77448310412617));
#548=CARTESIAN_POINT('',(-13.2030785186124,-2.81726280555094,-4.10309837891738));
#549=CARTESIAN_POINT('',(-13.2347480669507,-2.67016847976627,-4.42012182044054));
#550=CARTESIAN_POINT('',(-13.2706917920261,-2.47764794937654,-4.69919882955443));
#551=CARTESIAN_POINT('',(-13.306156486343,-2.28769318687883,-4.97455651155065));
#552=CARTESIAN_POINT('',(-13.3464722153377,-2.04836104032533,-5.22073829132271));
#553=CARTESIAN_POINT('',(-13.3823349184824,-1.77851402287587,-5.41837144408221));
#554=CARTESIAN_POINT('',(-13.4175024001625,-1.51389816265298,-5.61217335162343));
#555=CARTESIAN_POINT('',(-13.4490977313094,-1.21281820132252,-5.76444591605775));
#556=CARTESIAN_POINT('',(-13.4700585048424,-0.898623322713002,-5.86272973387269));
#557=CARTESIAN_POINT('',(-13.4910878420151,-0.583400698422571,-5.96133504250794));
#558=CARTESIAN_POINT('',(-13.5018048004204,-0.246397076872988,-6.00809786844746));
#559=CARTESIAN_POINT('',(-13.4997360426124,0.0844202569975994,-5.99881591663705));
#560=CARTESIAN_POINT('',(-13.4976217694002,0.422516009159111,-5.98932974962715));
#561=CARTESIAN_POINT('',(-13.4820849134132,0.76366376557489,-5.92098684020571));
#562=CARTESIAN_POINT('',(-13.4568462360643,1.07855893622991,-5.80012644218701));
#563=CARTESIAN_POINT('',(-13.4314347311606,1.39561042282963,-5.67843842524106));
#564=CARTESIAN_POINT('',(-13.3956809682598,1.69513816530716,-5.50021198879154));
#565=CARTESIAN_POINT('',(-13.3580281456416,1.95271197575256,-5.2806365795893));
#566=CARTESIAN_POINT('',(-13.3210877934549,2.2054119490956,-5.06521599798495));
#567=CARTESIAN_POINT('',(-13.2815718207381,2.42475060103631,-4.80417233367019));
#568=CARTESIAN_POINT('',(-13.2485391150402,2.59349403647832,-4.5177070016045));
#569=CARTESIAN_POINT('',(-13.2160293067062,2.75956631629754,-4.23577632583803));
#570=CARTESIAN_POINT('',(-13.1891853053475,2.88097967926458,-3.92164160155462));
#571=CARTESIAN_POINT('',(-13.1742920311039,2.94754634894739,-3.59997583624839));
#572=CARTESIAN_POINT('',(-13.1650321644852,2.98893405674292,-3.39998072209055));
#573=CARTESIAN_POINT('',(-13.1601633728431,3.01000000001333,-3.19444249336454));
#574=CARTESIAN_POINT('',(-13.1601633728461,3.01,-2.98999999980371));
#575=CARTESIAN_POINT('',(0.,0.,17.2));
#576=CARTESIAN_POINT('',(0.,3.01,0.));
#577=CARTESIAN_POINT('',(-7.3,3.01,0.));
#578=CARTESIAN_POINT('',(-12.91253774923,3.01,-2.989999999812));
#579=CARTESIAN_POINT('',(-7.3,3.01,-2.99));
#580=CARTESIAN_POINT('',(-7.3,3.01,-2.99));
#581=CARTESIAN_POINT('',(-7.3,3.01,-0.25));
#582=CARTESIAN_POINT('',(-12.91253774923,-3.01,-2.989999999819));
#583=CARTESIAN_POINT('',(-7.3,-3.01,-2.99));
#584=CARTESIAN_POINT('',(-7.3,0.,-2.99));
#585=CARTESIAN_POINT('',(-7.3,0.,-2.99));
#586=CARTESIAN_POINT('',(-7.3,-3.01,-0.25));
#587=CARTESIAN_POINT('',(-7.3,-3.01,0.));
#588=CARTESIAN_POINT('',(-7.3,0.,0.));
#589=CARTESIAN_POINT('',(-7.3,0.,0.));
#590=CARTESIAN_POINT('',(-7.3,-3.01,0.));
#591=CARTESIAN_POINT('',(0.,0.,0.));
#592=CARTESIAN_POINT('',(16.20135264625,-6.75,-35.));
#593=CARTESIAN_POINT('',(16.20135264625,-6.75,-35.));
#594=CARTESIAN_POINT('',(0.,0.,-35.));
#595=CARTESIAN_POINT('',(-7.3,-3.01,-2.99));
#596=CARTESIAN_POINT('',(-7.3,-3.,3.));
#597=CARTESIAN_POINT('',(-7.3,-3.,3.));
#598=CARTESIAN_POINT('',(-7.3,3.,3.));
#599=CARTESIAN_POINT('',(-7.3,-3.,-3.));
#600=CARTESIAN_POINT('',(-7.3,-3.,-3.));
#601=CARTESIAN_POINT('',(-7.3,0.,-3.));
#602=CARTESIAN_POINT('',(-7.3,3.,-3.));
#603=CARTESIAN_POINT('',(-7.3,3.,3.));
#604=CARTESIAN_POINT('',(-7.3,0.,-3.));
#605=CARTESIAN_POINT('',(-7.3,3.,-3.));
#606=CARTESIAN_POINT('',(-11.7,3.,-3.));
#607=CARTESIAN_POINT('',(-11.7,3.,3.));
#608=CARTESIAN_POINT('',(-11.7,3.,3.));
#609=CARTESIAN_POINT('',(-7.3,3.,3.));
#610=CARTESIAN_POINT('',(-7.3,3.,3.));
#611=CARTESIAN_POINT('',(-11.7,-3.,3.));
#612=CARTESIAN_POINT('',(-11.7,-3.,3.));
#613=CARTESIAN_POINT('',(-7.3,-3.,3.));
#614=CARTESIAN_POINT('',(-7.3,-3.,3.));
#615=CARTESIAN_POINT('',(-11.7,-3.,-3.));
#616=CARTESIAN_POINT('',(-11.7,-3.,-3.));
#617=CARTESIAN_POINT('',(-7.3,-3.,-3.));
#618=CARTESIAN_POINT('',(-7.3,-3.,-3.));
#619=CARTESIAN_POINT('',(-11.7,0.,-3.));
#620=CARTESIAN_POINT('',(-7.3,0.,-3.));
#621=CARTESIAN_POINT('',(-11.7,0.,-3.));
#622=MECHANICAL_DESIGN_GEOMETRIC_PRESENTATION_REPRESENTATION('',(#346,#347,
#348,#349,#350,#351,#352),#623);
#623=(
GEOMETRIC_REPRESENTATION_CONTEXT(3)
GLOBAL_UNCERTAINTY_ASSIGNED_CONTEXT((#624))
GLOBAL_UNIT_ASSIGNED_CONTEXT((#630,#626,#625))
REPRESENTATION_CONTEXT('A75020','TOP_LEVEL_ASSEMBLY_PART')
);
#624=UNCERTAINTY_MEASURE_WITH_UNIT(LENGTH_MEASURE(0.0508),#630,
'DISTANCE_ACCURACY_VALUE','Maximum Tolerance applied to model');
#625=(
NAMED_UNIT(*)
SI_UNIT($,.STERADIAN.)
SOLID_ANGLE_UNIT()
);
#626=(
CONVERSION_BASED_UNIT('DEGREE',#628)
NAMED_UNIT(#627)
PLANE_ANGLE_UNIT()
);
#627=DIMENSIONAL_EXPONENTS(0.,0.,0.,0.,0.,0.,0.);
#628=PLANE_ANGLE_MEASURE_WITH_UNIT(PLANE_ANGLE_MEASURE(0.0174532925),#629);
#629=(
NAMED_UNIT(*)
PLANE_ANGLE_UNIT()
SI_UNIT($,.RADIAN.)
);
#630=(
LENGTH_UNIT()
NAMED_UNIT(*)
SI_UNIT(.MILLI.,.METRE.)
);
ENDSEC;
END-ISO-10303-21;
