ISO-10303-21;
HEADER;
/* Generated by software containing ST-Developer
 * from STEP Tools, Inc. (www.steptools.com) 
 */
/* OPTION: using custom schema-name function */

FILE_DESCRIPTION(
/* description */ (''),
/* implementation_level */ '2;1');

FILE_NAME(
/* name */ 'A75000.stp',
/* time_stamp */ '2017-10-26T08:10:27+06:00',
/* author */ (''),
/* organization */ (''),
/* preprocessor_version */ 'ST-DEVELOPER v16',
/* originating_system */ 'SIEMENS PLM Software NX 11.0',
/* authorisation */ '');

FILE_SCHEMA (('AUTOMOTIVE_DESIGN { 1 0 10303 214 3 1 1 1 }'));
ENDSEC;

DATA;
#10=CONSTRUCTIVE_GEOMETRY_REPRESENTATION_RELATIONSHIP(
'supplemental geometry','',#32,#11);
#11=CONSTRUCTIVE_GEOMETRY_REPRESENTATION('supplemental geometry',(#372,
#373,#374,#375),#623);
#12=PROPERTY_DEFINITION_REPRESENTATION(#16,#14);
#13=PROPERTY_DEFINITION_REPRESENTATION(#17,#15);
#14=REPRESENTATION('',(#18),#623);
#15=REPRESENTATION('',(#19),#623);
#16=PROPERTY_DEFINITION('pmi validation property','',#23);
#17=PROPERTY_DEFINITION('pmi validation property','',#23);
#18=VALUE_REPRESENTATION_ITEM('number of annotations',COUNT_MEASURE(0.));
#19=VALUE_REPRESENTATION_ITEM('number of views',COUNT_MEASURE(0.));
#20=SHAPE_REPRESENTATION_RELATIONSHIP('None',
'relationship between A75000-None and A75000-None',#32,#21);
#21=ADVANCED_BREP_SHAPE_REPRESENTATION('A75000-None',(#48,#49,#50),#623);
#22=SHAPE_DEFINITION_REPRESENTATION(#23,#32);
#23=PRODUCT_DEFINITION_SHAPE('','',#24);
#24=PRODUCT_DEFINITION(' ','',#26,#25);
#25=PRODUCT_DEFINITION_CONTEXT('part definition',#31,'design');
#26=PRODUCT_DEFINITION_FORMATION_WITH_SPECIFIED_SOURCE(' ',' ',#28,
 .NOT_KNOWN.);
#27=PRODUCT_RELATED_PRODUCT_CATEGORY('part','',(#28));
#28=PRODUCT('A75000','A75000',' ',(#29));
#29=PRODUCT_CONTEXT(' ',#31,'mechanical');
#30=APPLICATION_PROTOCOL_DEFINITION('international standard',
'automotive_design',2010,#31);
#31=APPLICATION_CONTEXT(
'core data for automotive mechanical design processes');
#32=SHAPE_REPRESENTATION('A75000-None',(#371),#623);
#33=SURFACE_STYLE_USAGE(.BOTH.,#36);
#34=SURFACE_STYLE_USAGE(.BOTH.,#37);
#35=SURFACE_STYLE_USAGE(.BOTH.,#38);
#36=SURFACE_SIDE_STYLE('',(#39));
#37=SURFACE_SIDE_STYLE('',(#40));
#38=SURFACE_SIDE_STYLE('',(#41));
#39=SURFACE_STYLE_FILL_AREA(#42);
#40=SURFACE_STYLE_FILL_AREA(#43);
#41=SURFACE_STYLE_FILL_AREA(#44);
#42=FILL_AREA_STYLE('',(#45));
#43=FILL_AREA_STYLE('',(#46));
#44=FILL_AREA_STYLE('',(#47));
#45=FILL_AREA_STYLE_COLOUR('',#365);
#46=FILL_AREA_STYLE_COLOUR('',#365);
#47=FILL_AREA_STYLE_COLOUR('',#366);
#48=MANIFOLD_SOLID_BREP('NOCUT',#51);
#49=MANIFOLD_SOLID_BREP('NOCUT',#52);
#50=MANIFOLD_SOLID_BREP('NOCUT',#53);
#51=CLOSED_SHELL('',(#88,#89,#90,#91,#92,#93,#94,#95,#96,#97,#98));
#52=CLOSED_SHELL('',(#99,#100,#101));
#53=CLOSED_SHELL('',(#102,#103,#104,#105,#106,#107));
#54=PLANE('',#382);
#55=PLANE('',#383);
#56=PLANE('',#384);
#57=PLANE('',#385);
#58=PLANE('',#386);
#59=PLANE('',#387);
#60=PLANE('',#390);
#61=PLANE('',#391);
#62=PLANE('',#392);
#63=PLANE('',#394);
#64=PLANE('',#397);
#65=PLANE('',#398);
#66=PLANE('',#399);
#67=PLANE('',#401);
#68=PLANE('',#402);
#69=PLANE('',#404);
#70=FACE_OUTER_BOUND('',#119,.T.);
#71=FACE_OUTER_BOUND('',#120,.T.);
#72=FACE_OUTER_BOUND('',#121,.T.);
#73=FACE_OUTER_BOUND('',#122,.T.);
#74=FACE_OUTER_BOUND('',#123,.T.);
#75=FACE_OUTER_BOUND('',#124,.T.);
#76=FACE_OUTER_BOUND('',#125,.T.);
#77=FACE_OUTER_BOUND('',#126,.T.);
#78=FACE_OUTER_BOUND('',#127,.T.);
#79=FACE_OUTER_BOUND('',#128,.T.);
#80=FACE_OUTER_BOUND('',#129,.T.);
#81=FACE_OUTER_BOUND('',#132,.T.);
#82=FACE_OUTER_BOUND('',#133,.T.);
#83=FACE_OUTER_BOUND('',#134,.T.);
#84=FACE_OUTER_BOUND('',#135,.T.);
#85=FACE_OUTER_BOUND('',#136,.T.);
#86=FACE_OUTER_BOUND('',#137,.T.);
#87=FACE_OUTER_BOUND('',#138,.T.);
#88=ADVANCED_FACE('',(#113,#114),#108,.T.);
#89=ADVANCED_FACE('',(#70),#54,.T.);
#90=ADVANCED_FACE('',(#71),#55,.F.);
#91=ADVANCED_FACE('',(#72),#56,.F.);
#92=ADVANCED_FACE('',(#73),#57,.F.);
#93=ADVANCED_FACE('',(#74),#58,.F.);
#94=ADVANCED_FACE('',(#75),#59,.F.);
#95=ADVANCED_FACE('',(#76),#109,.F.);
#96=ADVANCED_FACE('',(#77),#60,.T.);
#97=ADVANCED_FACE('',(#78),#61,.T.);
#98=ADVANCED_FACE('',(#79),#62,.T.);
#99=ADVANCED_FACE('',(#80),#63,.T.);
#100=ADVANCED_FACE('',(#115,#116),#110,.T.);
#101=ADVANCED_FACE('',(#81),#64,.F.);
#102=ADVANCED_FACE('',(#82),#65,.T.);
#103=ADVANCED_FACE('',(#83),#66,.T.);
#104=ADVANCED_FACE('',(#84),#67,.T.);
#105=ADVANCED_FACE('',(#85),#68,.T.);
#106=ADVANCED_FACE('',(#86),#69,.F.);
#107=ADVANCED_FACE('',(#87),#111,.T.);
#108=CYLINDRICAL_SURFACE('',#381,8.25);
#109=CYLINDRICAL_SURFACE('',#389,2.);
#110=CYLINDRICAL_SURFACE('',#396,4.);
#111=CYLINDRICAL_SURFACE('',#405,2.);
#112=B_SPLINE_CURVE_WITH_KNOTS('',3,(#524,#525,#526,#527,#528,#529,#530,
#531,#532,#533,#534,#535,#536,#537,#538,#539,#540,#541,#542,#543,#544,#545,
#546,#547,#548,#549,#550,#551,#552,#553,#554),.UNSPECIFIED.,.F.,.F.,(4,
3,3,3,3,3,3,3,3,3,4),(0.,0.105263676150494,0.210393884445059,0.31751673114262,
0.426095405281096,0.53256762243774,0.636751072808458,0.741830634954804,
0.849651113130901,0.957975946573682,1.),.UNSPECIFIED.);
#113=FACE_BOUND('',#117,.T.);
#114=FACE_BOUND('',#118,.T.);
#115=FACE_BOUND('',#130,.T.);
#116=FACE_BOUND('',#131,.T.);
#117=EDGE_LOOP('',(#149,#150,#151,#152,#153,#154,#155,#156));
#118=EDGE_LOOP('',(#157,#158,#159,#160));
#119=EDGE_LOOP('',(#161,#162,#163,#164));
#120=EDGE_LOOP('',(#165,#166,#167,#168));
#121=EDGE_LOOP('',(#169,#170));
#122=EDGE_LOOP('',(#171,#172));
#123=EDGE_LOOP('',(#173,#174,#175,#176));
#124=EDGE_LOOP('',(#177,#178,#179,#180));
#125=EDGE_LOOP('',(#181,#182,#183,#184));
#126=EDGE_LOOP('',(#185,#186,#187,#188));
#127=EDGE_LOOP('',(#189,#190,#191,#192));
#128=EDGE_LOOP('',(#193,#194,#195,#196));
#129=EDGE_LOOP('',(#197));
#130=EDGE_LOOP('',(#198));
#131=EDGE_LOOP('',(#199));
#132=EDGE_LOOP('',(#200));
#133=EDGE_LOOP('',(#201,#202,#203,#204));
#134=EDGE_LOOP('',(#205,#206,#207,#208));
#135=EDGE_LOOP('',(#209,#210,#211,#212));
#136=EDGE_LOOP('',(#213,#214,#215,#216));
#137=EDGE_LOOP('',(#217,#218,#219,#220));
#138=EDGE_LOOP('',(#221,#222,#223,#224));
#139=CIRCLE('',#376,8.25);
#140=CIRCLE('',#377,8.25);
#141=CIRCLE('',#378,8.25);
#142=CIRCLE('',#379,8.25);
#143=CIRCLE('',#380,8.25);
#144=CIRCLE('',#388,2.);
#145=CIRCLE('',#393,4.);
#146=CIRCLE('',#395,4.);
#147=CIRCLE('',#400,2.);
#148=CIRCLE('',#403,2.);
#149=ORIENTED_EDGE('',*,*,#251,.T.);
#150=ORIENTED_EDGE('',*,*,#252,.T.);
#151=ORIENTED_EDGE('',*,*,#253,.F.);
#152=ORIENTED_EDGE('',*,*,#254,.T.);
#153=ORIENTED_EDGE('',*,*,#255,.F.);
#154=ORIENTED_EDGE('',*,*,#256,.T.);
#155=ORIENTED_EDGE('',*,*,#257,.T.);
#156=ORIENTED_EDGE('',*,*,#258,.T.);
#157=ORIENTED_EDGE('',*,*,#259,.T.);
#158=ORIENTED_EDGE('',*,*,#260,.T.);
#159=ORIENTED_EDGE('',*,*,#261,.F.);
#160=ORIENTED_EDGE('',*,*,#262,.T.);
#161=ORIENTED_EDGE('',*,*,#261,.T.);
#162=ORIENTED_EDGE('',*,*,#263,.T.);
#163=ORIENTED_EDGE('',*,*,#264,.T.);
#164=ORIENTED_EDGE('',*,*,#265,.T.);
#165=ORIENTED_EDGE('',*,*,#266,.F.);
#166=ORIENTED_EDGE('',*,*,#257,.F.);
#167=ORIENTED_EDGE('',*,*,#267,.T.);
#168=ORIENTED_EDGE('',*,*,#255,.T.);
#169=ORIENTED_EDGE('',*,*,#267,.F.);
#170=ORIENTED_EDGE('',*,*,#256,.F.);
#171=ORIENTED_EDGE('',*,*,#252,.F.);
#172=ORIENTED_EDGE('',*,*,#268,.T.);
#173=ORIENTED_EDGE('',*,*,#268,.F.);
#174=ORIENTED_EDGE('',*,*,#251,.F.);
#175=ORIENTED_EDGE('',*,*,#269,.T.);
#176=ORIENTED_EDGE('',*,*,#253,.T.);
#177=ORIENTED_EDGE('',*,*,#269,.F.);
#178=ORIENTED_EDGE('',*,*,#258,.F.);
#179=ORIENTED_EDGE('',*,*,#266,.T.);
#180=ORIENTED_EDGE('',*,*,#254,.F.);
#181=ORIENTED_EDGE('',*,*,#270,.F.);
#182=ORIENTED_EDGE('',*,*,#271,.T.);
#183=ORIENTED_EDGE('',*,*,#272,.T.);
#184=ORIENTED_EDGE('',*,*,#259,.F.);
#185=ORIENTED_EDGE('',*,*,#272,.F.);
#186=ORIENTED_EDGE('',*,*,#273,.T.);
#187=ORIENTED_EDGE('',*,*,#263,.F.);
#188=ORIENTED_EDGE('',*,*,#260,.F.);
#189=ORIENTED_EDGE('',*,*,#265,.F.);
#190=ORIENTED_EDGE('',*,*,#274,.T.);
#191=ORIENTED_EDGE('',*,*,#270,.T.);
#192=ORIENTED_EDGE('',*,*,#262,.F.);
#193=ORIENTED_EDGE('',*,*,#273,.F.);
#194=ORIENTED_EDGE('',*,*,#271,.F.);
#195=ORIENTED_EDGE('',*,*,#274,.F.);
#196=ORIENTED_EDGE('',*,*,#264,.F.);
#197=ORIENTED_EDGE('',*,*,#275,.T.);
#198=ORIENTED_EDGE('',*,*,#275,.F.);
#199=ORIENTED_EDGE('',*,*,#276,.F.);
#200=ORIENTED_EDGE('',*,*,#276,.T.);
#201=ORIENTED_EDGE('',*,*,#277,.T.);
#202=ORIENTED_EDGE('',*,*,#278,.F.);
#203=ORIENTED_EDGE('',*,*,#279,.F.);
#204=ORIENTED_EDGE('',*,*,#280,.T.);
#205=ORIENTED_EDGE('',*,*,#281,.F.);
#206=ORIENTED_EDGE('',*,*,#277,.F.);
#207=ORIENTED_EDGE('',*,*,#282,.T.);
#208=ORIENTED_EDGE('',*,*,#283,.F.);
#209=ORIENTED_EDGE('',*,*,#284,.T.);
#210=ORIENTED_EDGE('',*,*,#278,.T.);
#211=ORIENTED_EDGE('',*,*,#281,.T.);
#212=ORIENTED_EDGE('',*,*,#285,.T.);
#213=ORIENTED_EDGE('',*,*,#286,.T.);
#214=ORIENTED_EDGE('',*,*,#279,.T.);
#215=ORIENTED_EDGE('',*,*,#284,.F.);
#216=ORIENTED_EDGE('',*,*,#287,.T.);
#217=ORIENTED_EDGE('',*,*,#282,.F.);
#218=ORIENTED_EDGE('',*,*,#280,.F.);
#219=ORIENTED_EDGE('',*,*,#286,.F.);
#220=ORIENTED_EDGE('',*,*,#288,.F.);
#221=ORIENTED_EDGE('',*,*,#288,.T.);
#222=ORIENTED_EDGE('',*,*,#287,.F.);
#223=ORIENTED_EDGE('',*,*,#285,.F.);
#224=ORIENTED_EDGE('',*,*,#283,.T.);
#225=VERTEX_POINT('',#509);
#226=VERTEX_POINT('',#510);
#227=VERTEX_POINT('',#512);
#228=VERTEX_POINT('',#514);
#229=VERTEX_POINT('',#516);
#230=VERTEX_POINT('',#518);
#231=VERTEX_POINT('',#520);
#232=VERTEX_POINT('',#522);
#233=VERTEX_POINT('',#555);
#234=VERTEX_POINT('',#556);
#235=VERTEX_POINT('',#558);
#236=VERTEX_POINT('',#560);
#237=VERTEX_POINT('',#564);
#238=VERTEX_POINT('',#566);
#239=VERTEX_POINT('',#579);
#240=VERTEX_POINT('',#581);
#241=VERTEX_POINT('',#590);
#242=VERTEX_POINT('',#593);
#243=VERTEX_POINT('',#597);
#244=VERTEX_POINT('',#598);
#245=VERTEX_POINT('',#600);
#246=VERTEX_POINT('',#602);
#247=VERTEX_POINT('',#606);
#248=VERTEX_POINT('',#608);
#249=VERTEX_POINT('',#612);
#250=VERTEX_POINT('',#616);
#251=EDGE_CURVE('',#225,#226,#289,.T.);
#252=EDGE_CURVE('',#226,#227,#139,.T.);
#253=EDGE_CURVE('',#228,#227,#290,.T.);
#254=EDGE_CURVE('',#228,#229,#140,.T.);
#255=EDGE_CURVE('',#230,#229,#291,.T.);
#256=EDGE_CURVE('',#230,#231,#141,.T.);
#257=EDGE_CURVE('',#231,#232,#292,.T.);
#258=EDGE_CURVE('',#232,#225,#142,.T.);
#259=EDGE_CURVE('',#233,#234,#112,.T.);
#260=EDGE_CURVE('',#234,#235,#293,.T.);
#261=EDGE_CURVE('',#236,#235,#143,.T.);
#262=EDGE_CURVE('',#236,#233,#294,.T.);
#263=EDGE_CURVE('',#235,#237,#295,.T.);
#264=EDGE_CURVE('',#237,#238,#296,.T.);
#265=EDGE_CURVE('',#238,#236,#297,.T.);
#266=EDGE_CURVE('',#232,#229,#298,.T.);
#267=EDGE_CURVE('',#231,#230,#299,.T.);
#268=EDGE_CURVE('',#226,#227,#300,.T.);
#269=EDGE_CURVE('',#225,#228,#301,.T.);
#270=EDGE_CURVE('',#239,#233,#302,.T.);
#271=EDGE_CURVE('',#239,#240,#144,.T.);
#272=EDGE_CURVE('',#240,#234,#303,.T.);
#273=EDGE_CURVE('',#240,#237,#304,.T.);
#274=EDGE_CURVE('',#238,#239,#305,.T.);
#275=EDGE_CURVE('',#241,#241,#145,.T.);
#276=EDGE_CURVE('',#242,#242,#146,.T.);
#277=EDGE_CURVE('',#243,#244,#306,.T.);
#278=EDGE_CURVE('',#245,#244,#307,.T.);
#279=EDGE_CURVE('',#246,#245,#308,.T.);
#280=EDGE_CURVE('',#246,#243,#309,.T.);
#281=EDGE_CURVE('',#244,#247,#310,.T.);
#282=EDGE_CURVE('',#243,#248,#311,.T.);
#283=EDGE_CURVE('',#247,#248,#312,.T.);
#284=EDGE_CURVE('',#249,#245,#313,.T.);
#285=EDGE_CURVE('',#247,#249,#147,.T.);
#286=EDGE_CURVE('',#250,#246,#314,.T.);
#287=EDGE_CURVE('',#249,#250,#315,.T.);
#288=EDGE_CURVE('',#248,#250,#148,.T.);
#289=LINE('',#508,#316);
#290=LINE('',#513,#317);
#291=LINE('',#517,#318);
#292=LINE('',#521,#319);
#293=LINE('',#557,#320);
#294=LINE('',#561,#321);
#295=LINE('',#563,#322);
#296=LINE('',#565,#323);
#297=LINE('',#567,#324);
#298=LINE('',#569,#325);
#299=LINE('',#570,#326);
#300=LINE('',#573,#327);
#301=LINE('',#575,#328);
#302=LINE('',#578,#329);
#303=LINE('',#582,#330);
#304=LINE('',#584,#331);
#305=LINE('',#586,#332);
#306=LINE('',#596,#333);
#307=LINE('',#599,#334);
#308=LINE('',#601,#335);
#309=LINE('',#603,#336);
#310=LINE('',#605,#337);
#311=LINE('',#607,#338);
#312=LINE('',#609,#339);
#313=LINE('',#611,#340);
#314=LINE('',#615,#341);
#315=LINE('',#617,#342);
#316=VECTOR('',#416,1.);
#317=VECTOR('',#419,1.);
#318=VECTOR('',#422,1.);
#319=VECTOR('',#425,1.);
#320=VECTOR('',#428,1.);
#321=VECTOR('',#431,1.);
#322=VECTOR('',#434,1.);
#323=VECTOR('',#435,1.);
#324=VECTOR('',#436,1.);
#325=VECTOR('',#439,1.);
#326=VECTOR('',#440,1.);
#327=VECTOR('',#445,1.);
#328=VECTOR('',#448,1.);
#329=VECTOR('',#453,1.);
#330=VECTOR('',#456,1.);
#331=VECTOR('',#459,1.);
#332=VECTOR('',#462,1.);
#333=VECTOR('',#477,1.);
#334=VECTOR('',#478,1.);
#335=VECTOR('',#479,1.);
#336=VECTOR('',#480,1.);
#337=VECTOR('',#483,1.);
#338=VECTOR('',#484,1.);
#339=VECTOR('',#485,1.);
#340=VECTOR('',#488,1.);
#341=VECTOR('',#493,1.);
#342=VECTOR('',#494,1.);
#343=PRESENTATION_LAYER_ASSIGNMENT('1','Layer 1',(#372,#373,#374,#375,#49));
#344=PRESENTATION_LAYER_ASSIGNMENT('2','Layer 2',(#48));
#345=PRESENTATION_LAYER_ASSIGNMENT('4','Layer 4',(#50));
#346=STYLED_ITEM('',(#353),#372);
#347=STYLED_ITEM('',(#354),#373);
#348=STYLED_ITEM('',(#355),#374);
#349=STYLED_ITEM('',(#356),#375);
#350=STYLED_ITEM('',(#357),#48);
#351=STYLED_ITEM('',(#358),#49);
#352=STYLED_ITEM('',(#359),#50);
#353=PRESENTATION_STYLE_ASSIGNMENT((#360));
#354=PRESENTATION_STYLE_ASSIGNMENT((#361));
#355=PRESENTATION_STYLE_ASSIGNMENT((#362));
#356=PRESENTATION_STYLE_ASSIGNMENT((#363));
#357=PRESENTATION_STYLE_ASSIGNMENT((#33));
#358=PRESENTATION_STYLE_ASSIGNMENT((#34));
#359=PRESENTATION_STYLE_ASSIGNMENT((#35));
#360=CURVE_STYLE('',#367,POSITIVE_LENGTH_MEASURE(0.18),#364);
#361=CURVE_STYLE('',#368,POSITIVE_LENGTH_MEASURE(0.18),#364);
#362=CURVE_STYLE('',#369,POSITIVE_LENGTH_MEASURE(0.18),#364);
#363=CURVE_STYLE('',#370,POSITIVE_LENGTH_MEASURE(0.18),#364);
#364=COLOUR_RGB('Strong Stone',0.576470588235294,0.54508278019379,0.392156862745098);
#365=COLOUR_RGB('Medium Gray',0.490196078431373,0.490196078431373,0.490196078431373);
#366=COLOUR_RGB('Iron Gray',0.298023956664378,0.298023956664378,0.298023956664378);
#367=DRAUGHTING_PRE_DEFINED_CURVE_FONT('continuous');
#368=DRAUGHTING_PRE_DEFINED_CURVE_FONT('continuous');
#369=DRAUGHTING_PRE_DEFINED_CURVE_FONT('continuous');
#370=DRAUGHTING_PRE_DEFINED_CURVE_FONT('continuous');
#371=AXIS2_PLACEMENT_3D('',#503,#406,#407);
#372=AXIS2_PLACEMENT_3D('MCS',#504,#408,#409);
#373=AXIS2_PLACEMENT_3D('PCS',#505,#410,#411);
#374=AXIS2_PLACEMENT_3D('CSW1',#506,#412,#413);
#375=AXIS2_PLACEMENT_3D('CSW2',#507,#414,#415);
#376=AXIS2_PLACEMENT_3D('',#511,#417,#418);
#377=AXIS2_PLACEMENT_3D('',#515,#420,#421);
#378=AXIS2_PLACEMENT_3D('',#519,#423,#424);
#379=AXIS2_PLACEMENT_3D('',#523,#426,#427);
#380=AXIS2_PLACEMENT_3D('',#559,#429,#430);
#381=AXIS2_PLACEMENT_3D('',#562,#432,#433);
#382=AXIS2_PLACEMENT_3D('',#568,#437,#438);
#383=AXIS2_PLACEMENT_3D('',#571,#441,#442);
#384=AXIS2_PLACEMENT_3D('',#572,#443,#444);
#385=AXIS2_PLACEMENT_3D('',#574,#446,#447);
#386=AXIS2_PLACEMENT_3D('',#576,#449,#450);
#387=AXIS2_PLACEMENT_3D('',#577,#451,#452);
#388=AXIS2_PLACEMENT_3D('',#580,#454,#455);
#389=AXIS2_PLACEMENT_3D('',#583,#457,#458);
#390=AXIS2_PLACEMENT_3D('',#585,#460,#461);
#391=AXIS2_PLACEMENT_3D('',#587,#463,#464);
#392=AXIS2_PLACEMENT_3D('',#588,#465,#466);
#393=AXIS2_PLACEMENT_3D('',#589,#467,#468);
#394=AXIS2_PLACEMENT_3D('',#591,#469,#470);
#395=AXIS2_PLACEMENT_3D('',#592,#471,#472);
#396=AXIS2_PLACEMENT_3D('',#594,#473,#474);
#397=AXIS2_PLACEMENT_3D('',#595,#475,#476);
#398=AXIS2_PLACEMENT_3D('',#604,#481,#482);
#399=AXIS2_PLACEMENT_3D('',#610,#486,#487);
#400=AXIS2_PLACEMENT_3D('',#613,#489,#490);
#401=AXIS2_PLACEMENT_3D('',#614,#491,#492);
#402=AXIS2_PLACEMENT_3D('',#618,#495,#496);
#403=AXIS2_PLACEMENT_3D('',#619,#497,#498);
#404=AXIS2_PLACEMENT_3D('',#620,#499,#500);
#405=AXIS2_PLACEMENT_3D('',#621,#501,#502);
#406=DIRECTION('',(0.,0.,1.));
#407=DIRECTION('',(1.,0.,0.));
#408=DIRECTION('',(0.,0.,1.));
#409=DIRECTION('',(1.,0.,0.));
#410=DIRECTION('',(0.,0.,1.));
#411=DIRECTION('',(1.,0.,0.));
#412=DIRECTION('',(0.,0.,1.));
#413=DIRECTION('',(-1.,0.,0.));
#414=DIRECTION('',(0.,0.,1.));
#415=DIRECTION('',(1.,0.,0.));
#416=DIRECTION('',(0.,0.,-1.));
#417=DIRECTION('',(0.,0.,1.));
#418=DIRECTION('',(0.,1.,0.));
#419=DIRECTION('',(0.,0.,-1.));
#420=DIRECTION('',(0.,0.,1.));
#421=DIRECTION('',(-0.874598163009799,0.484848484848499,0.));
#422=DIRECTION('',(0.,0.,1.));
#423=DIRECTION('',(0.,0.,1.));
#424=DIRECTION('',(-0.874598163009799,-0.484848484848499,0.));
#425=DIRECTION('',(0.,0.,1.));
#426=DIRECTION('',(0.,0.,1.));
#427=DIRECTION('',(0.874598163009799,-0.484848484848499,0.));
#428=DIRECTION('',(0.,0.,1.));
#429=DIRECTION('',(0.,0.,1.));
#430=DIRECTION('',(-1.,0.,0.));
#431=DIRECTION('',(0.,0.,-1.));
#432=DIRECTION('',(0.,0.,1.));
#433=DIRECTION('',(-1.,0.,0.));
#434=DIRECTION('',(1.,0.,0.));
#435=DIRECTION('',(0.,-1.,0.));
#436=DIRECTION('',(-1.,0.,0.));
#437=DIRECTION('',(0.,0.,1.));
#438=DIRECTION('',(-1.,0.,0.));
#439=DIRECTION('',(-1.,0.,0.));
#440=DIRECTION('',(-1.,0.,0.));
#441=DIRECTION('',(0.,-1.,0.));
#442=DIRECTION('',(0.,0.,1.));
#443=DIRECTION('',(0.,0.,1.));
#444=DIRECTION('',(0.,1.,0.));
#445=DIRECTION('',(-1.,0.,0.));
#446=DIRECTION('',(0.,0.,1.));
#447=DIRECTION('',(0.,1.,0.));
#448=DIRECTION('',(-1.,0.,0.));
#449=DIRECTION('',(0.,1.,0.));
#450=DIRECTION('',(0.,0.,-1.));
#451=DIRECTION('',(0.,0.,1.));
#452=DIRECTION('',(0.,1.,0.));
#453=DIRECTION('',(-1.,0.,0.));
#454=DIRECTION('',(1.,0.,0.));
#455=DIRECTION('',(0.,0.,-1.));
#456=DIRECTION('',(-1.,0.,0.));
#457=DIRECTION('',(1.,0.,0.));
#458=DIRECTION('',(0.,0.,-1.));
#459=DIRECTION('',(0.,0.,1.));
#460=DIRECTION('',(0.,-1.,0.));
#461=DIRECTION('',(0.,0.,-1.));
#462=DIRECTION('',(0.,0.,-1.));
#463=DIRECTION('',(0.,1.,0.));
#464=DIRECTION('',(0.,0.,1.));
#465=DIRECTION('',(-1.,0.,0.));
#466=DIRECTION('',(0.,0.,-1.));
#467=DIRECTION('',(0.,0.,1.));
#468=DIRECTION('',(-1.,0.,0.));
#469=DIRECTION('',(0.,0.,1.));
#470=DIRECTION('',(-1.,0.,0.));
#471=DIRECTION('',(0.,0.,-1.));
#472=DIRECTION('',(0.,1.,0.));
#473=DIRECTION('',(0.,0.,1.));
#474=DIRECTION('',(-1.,0.,0.));
#475=DIRECTION('',(0.,0.,1.));
#476=DIRECTION('',(0.,-1.,0.));
#477=DIRECTION('',(-1.,0.,0.));
#478=DIRECTION('',(0.,1.,0.));
#479=DIRECTION('',(-1.,0.,0.));
#480=DIRECTION('',(0.,1.,0.));
#481=DIRECTION('',(0.,0.,1.));
#482=DIRECTION('',(0.,1.,0.));
#483=DIRECTION('',(0.,0.,-1.));
#484=DIRECTION('',(0.,0.,-1.));
#485=DIRECTION('',(1.,0.,0.));
#486=DIRECTION('',(0.,1.,0.));
#487=DIRECTION('',(0.,0.,-1.));
#488=DIRECTION('',(0.,0.,1.));
#489=DIRECTION('',(-1.,0.,0.));
#490=DIRECTION('',(0.,0.,-1.));
#491=DIRECTION('',(-1.,0.,0.));
#492=DIRECTION('',(0.,0.,-1.));
#493=DIRECTION('',(0.,0.,1.));
#494=DIRECTION('',(1.,0.,0.));
#495=DIRECTION('',(0.,-1.,0.));
#496=DIRECTION('',(0.,0.,1.));
#497=DIRECTION('',(-1.,0.,0.));
#498=DIRECTION('',(0.,0.,-1.));
#499=DIRECTION('',(-1.,0.,0.));
#500=DIRECTION('',(0.,0.,-1.));
#501=DIRECTION('',(1.,0.,0.));
#502=DIRECTION('',(0.,0.,1.));
#503=CARTESIAN_POINT('',(0.,0.,0.));
#504=CARTESIAN_POINT('',(0.,0.,0.));
#505=CARTESIAN_POINT('',(0.,0.,0.));
#506=CARTESIAN_POINT('',(-1.4955277875105,4.,-12.4999999999987));
#507=CARTESIAN_POINT('',(1.49552778751049,-4.,-12.4999999999987));
#508=CARTESIAN_POINT('',(7.215434844831,4.,-26.));
#509=CARTESIAN_POINT('',(7.215434844831,4.,-12.5));
#510=CARTESIAN_POINT('',(7.215434844831,4.,-26.));
#511=CARTESIAN_POINT('',(0.,0.,-26.));
#512=CARTESIAN_POINT('',(-7.215434844831,4.,-26.));
#513=CARTESIAN_POINT('',(-7.215434844831,4.,-26.));
#514=CARTESIAN_POINT('',(-7.215434844831,4.,-12.5));
#515=CARTESIAN_POINT('',(0.,0.,-12.5));
#516=CARTESIAN_POINT('',(-7.215434844831,-4.,-12.5));
#517=CARTESIAN_POINT('',(-7.215434844831,-4.,-26.));
#518=CARTESIAN_POINT('',(-7.215434844831,-4.,-26.));
#519=CARTESIAN_POINT('',(0.,0.,-26.));
#520=CARTESIAN_POINT('',(7.215434844831,-4.,-26.));
#521=CARTESIAN_POINT('',(7.215434844831,-4.,-26.));
#522=CARTESIAN_POINT('',(7.215434844831,-4.,-12.5));
#523=CARTESIAN_POINT('',(0.,0.,-12.5));
#524=CARTESIAN_POINT('',(-8.00390529679106,-1.99999999999999,-4.3));
#525=CARTESIAN_POINT('',(-8.00390529679106,-1.99999999999999,-4.52015686691796));
#526=CARTESIAN_POINT('',(-8.01350403712506,-1.96255950554245,-4.74333529818705));
#527=CARTESIAN_POINT('',(-8.03032802706393,-1.89111918655371,-4.95089801217118));
#528=CARTESIAN_POINT('',(-8.04713985158115,-1.81973052603635,-5.15831063762446));
#529=CARTESIAN_POINT('',(-8.07144502633052,-1.7125868702029,-5.35582263816152));
#530=CARTESIAN_POINT('',(-8.09759353003051,-1.57844196041795,-5.52821861962433));
#531=CARTESIAN_POINT('',(-8.12423010131365,-1.44179320633422,-5.70383241006709));
#532=CARTESIAN_POINT('',(-8.15331633051324,-1.27338870418709,-5.85823192113164));
#533=CARTESIAN_POINT('',(-8.17815743216202,-1.08638897949731,-5.97921379973688));
#534=CARTESIAN_POINT('',(-8.20331651073429,-0.896995576862229,-6.10174429909586));
#535=CARTESIAN_POINT('',(-8.22463857673779,-0.683073288789027,-6.19334997283194));
#536=CARTESIAN_POINT('',(-8.23702106395471,-0.462584037734189,-6.24576874474679));
#537=CARTESIAN_POINT('',(-8.2491652373715,-0.246338330838645,-6.29717866306751));
#538=CARTESIAN_POINT('',(-8.25295259744497,-0.0176730305562914,-6.3122650005094));
#539=CARTESIAN_POINT('',(-8.24748468044544,0.203706764290589,-6.28959884252637));
#540=CARTESIAN_POINT('',(-8.24212994182159,0.420504301288657,-6.26740184289806));
#541=CARTESIAN_POINT('',(-8.22782268757274,0.636216632276391,-6.20849400982035));
#542=CARTESIAN_POINT('',(-8.20778364165196,0.833539256322444,-6.11802428701309));
#543=CARTESIAN_POINT('',(-8.18756732574921,1.03260744141678,-6.02675424835282));
#544=CARTESIAN_POINT('',(-8.1611207335205,1.21835880824993,-5.90101552795919));
#545=CARTESIAN_POINT('',(-8.13432231386776,1.37669912984396,-5.75075825204853));
#546=CARTESIAN_POINT('',(-8.10684244052422,1.53906586784423,-5.59668010249816));
#547=CARTESIAN_POINT('',(-8.07842048246819,1.67708781416353,-5.41252991569257));
#548=CARTESIAN_POINT('',(-8.05579687775984,1.7795046120409,-5.21288736201417));
#549=CARTESIAN_POINT('',(-8.03308224061668,1.88233351270189,-5.01244149038595));
#550=CARTESIAN_POINT('',(-8.01579212341759,1.95206049591912,-4.7905838175933));
#551=CARTESIAN_POINT('',(-8.00833402767472,1.9821922462736,-4.56629663687859));
#552=CARTESIAN_POINT('',(-8.00540329197474,1.99403282857656,-4.47816067426417));
#553=CARTESIAN_POINT('',(-8.00390529679106,2.00000000000001,-4.3889760445681));
#554=CARTESIAN_POINT('',(-8.00390529679106,2.00000000000001,-4.3));
#555=CARTESIAN_POINT('',(-8.00390529679106,-1.99999999999999,-4.3));
#556=CARTESIAN_POINT('',(-8.00390529679106,2.00000000000001,-4.3));
#557=CARTESIAN_POINT('',(-8.00390529679106,2.,-9.));
#558=CARTESIAN_POINT('',(-8.00390529679106,2.,0.));
#559=CARTESIAN_POINT('',(0.,0.,0.));
#560=CARTESIAN_POINT('',(-8.00390529679106,-2.,0.));
#561=CARTESIAN_POINT('',(-8.00390529679106,-2.,-9.));
#562=CARTESIAN_POINT('',(0.,0.,-9.));
#563=CARTESIAN_POINT('',(0.,2.,0.));
#564=CARTESIAN_POINT('',(-4.2,2.,0.));
#565=CARTESIAN_POINT('',(-4.2,0.,0.));
#566=CARTESIAN_POINT('',(-4.2,-2.,0.));
#567=CARTESIAN_POINT('',(0.,-2.,0.));
#568=CARTESIAN_POINT('',(0.,0.,0.));
#569=CARTESIAN_POINT('',(7.215434844831,-4.,-12.5));
#570=CARTESIAN_POINT('',(7.215434844831,-4.,-26.));
#571=CARTESIAN_POINT('',(9.908153922086,-4.,-26.));
#572=CARTESIAN_POINT('',(0.,0.,-26.));
#573=CARTESIAN_POINT('',(7.215434844831,4.,-26.));
#574=CARTESIAN_POINT('',(0.,0.,-26.));
#575=CARTESIAN_POINT('',(7.215434844831,4.,-12.5));
#576=CARTESIAN_POINT('',(9.908153922086,4.,-12.5));
#577=CARTESIAN_POINT('',(9.908153922086,-4.,-12.5));
#578=CARTESIAN_POINT('',(-104.7,-1.99999999999999,-4.3));
#579=CARTESIAN_POINT('',(-4.2,-1.99999999999999,-4.3));
#580=CARTESIAN_POINT('',(-4.2,1.11672823766007E-14,-4.3));
#581=CARTESIAN_POINT('',(-4.2,2.00000000000001,-4.3));
#582=CARTESIAN_POINT('',(-104.7,2.00000000000001,-4.3));
#583=CARTESIAN_POINT('',(-104.7,1.11672823766007E-14,-4.3));
#584=CARTESIAN_POINT('',(-4.2,2.,1.7));
#585=CARTESIAN_POINT('',(-104.7,2.,1.7));
#586=CARTESIAN_POINT('',(-4.2,-2.,-4.3));
#587=CARTESIAN_POINT('',(-104.7,-2.,-4.3));
#588=CARTESIAN_POINT('',(-4.2,1.11672823766007E-14,-4.3));
#589=CARTESIAN_POINT('',(0.,0.,12.));
#590=CARTESIAN_POINT('',(-4.,0.,12.));
#591=CARTESIAN_POINT('',(0.,0.,12.));
#592=CARTESIAN_POINT('',(0.,0.,0.));
#593=CARTESIAN_POINT('',(0.,4.,0.));
#594=CARTESIAN_POINT('',(0.,0.,-9.));
#595=CARTESIAN_POINT('',(0.,0.,0.));
#596=CARTESIAN_POINT('',(-4.2,2.,1.7));
#597=CARTESIAN_POINT('',(-4.2,2.,1.7));
#598=CARTESIAN_POINT('',(-7.6,2.,1.7));
#599=CARTESIAN_POINT('',(-7.6,-2.,1.7));
#600=CARTESIAN_POINT('',(-7.6,-2.,1.7));
#601=CARTESIAN_POINT('',(-4.2,-2.,1.7));
#602=CARTESIAN_POINT('',(-4.2,-2.,1.7));
#603=CARTESIAN_POINT('',(-4.2,-2.,1.7));
#604=CARTESIAN_POINT('',(-4.2,-2.,1.7));
#605=CARTESIAN_POINT('',(-7.6,2.,1.7));
#606=CARTESIAN_POINT('',(-7.6,2.00000000000001,-4.3));
#607=CARTESIAN_POINT('',(-4.2,2.,1.7));
#608=CARTESIAN_POINT('',(-4.2,2.00000000000001,-4.3));
#609=CARTESIAN_POINT('',(-7.6,2.00000000000001,-4.3));
#610=CARTESIAN_POINT('',(-4.2,2.,1.7));
#611=CARTESIAN_POINT('',(-7.6,-2.,0.));
#612=CARTESIAN_POINT('',(-7.6,-1.99999999999999,-4.3));
#613=CARTESIAN_POINT('',(-7.6,1.11672823766007E-14,-4.3));
#614=CARTESIAN_POINT('',(-7.6,0.,-3.));
#615=CARTESIAN_POINT('',(-4.2,-2.,0.));
#616=CARTESIAN_POINT('',(-4.2,-1.99999999999999,-4.3));
#617=CARTESIAN_POINT('',(-7.6,-1.99999999999999,-4.3));
#618=CARTESIAN_POINT('',(-4.2,-2.,-3.5));
#619=CARTESIAN_POINT('',(-4.2,1.11672823766007E-14,-4.3));
#620=CARTESIAN_POINT('',(-4.2,0.,-3.));
#621=CARTESIAN_POINT('',(-7.6,1.11672823766007E-14,-4.3));
#622=MECHANICAL_DESIGN_GEOMETRIC_PRESENTATION_REPRESENTATION('',(#346,#347,
#348,#349,#350,#351,#352),#623);
#623=(
GEOMETRIC_REPRESENTATION_CONTEXT(3)
GLOBAL_UNCERTAINTY_ASSIGNED_CONTEXT((#624))
GLOBAL_UNIT_ASSIGNED_CONTEXT((#630,#626,#625))
REPRESENTATION_CONTEXT('A75000','TOP_LEVEL_ASSEMBLY_PART')
);
#624=UNCERTAINTY_MEASURE_WITH_UNIT(LENGTH_MEASURE(0.0508),#630,
'DISTANCE_ACCURACY_VALUE','Maximum Tolerance applied to model');
#625=(
NAMED_UNIT(*)
SI_UNIT($,.STERADIAN.)
SOLID_ANGLE_UNIT()
);
#626=(
CONVERSION_BASED_UNIT('DEGREE',#628)
NAMED_UNIT(#627)
PLANE_ANGLE_UNIT()
);
#627=DIMENSIONAL_EXPONENTS(0.,0.,0.,0.,0.,0.,0.);
#628=PLANE_ANGLE_MEASURE_WITH_UNIT(PLANE_ANGLE_MEASURE(0.0174532925),#629);
#629=(
NAMED_UNIT(*)
PLANE_ANGLE_UNIT()
SI_UNIT($,.RADIAN.)
);
#630=(
LENGTH_UNIT()
NAMED_UNIT(*)
SI_UNIT(.MILLI.,.METRE.)
);
ENDSEC;
END-ISO-10303-21;
