ISO-10303-21;
HEADER;
/* Generated by software containing ST-Developer
 * from STEP Tools, Inc. (www.steptools.com) 
 */
/* OPTION: using custom schema-name function */

FILE_DESCRIPTION(
/* description */ (''),
/* implementation_level */ '2;1');

FILE_NAME(
/* name */ 'A731200.stp',
/* time_stamp */ '2017-10-23T16:42:28+05:00',
/* author */ (''),
/* organization */ (''),
/* preprocessor_version */ 'ST-DEVELOPER v16',
/* originating_system */ 'SIEMENS PLM Software NX 11.0',
/* authorisation */ '');

FILE_SCHEMA (('AUTOMOTIVE_DESIGN { 1 0 10303 214 3 1 1 1 }'));
ENDSEC;

DATA;
#10=CONSTRUCTIVE_GEOMETRY_REPRESENTATION_RELATIONSHIP(
'supplemental geometry','',#32,#11);
#11=CONSTRUCTIVE_GEOMETRY_REPRESENTATION('supplemental geometry',(#351,
#352,#353),#584);
#12=PROPERTY_DEFINITION_REPRESENTATION(#16,#14);
#13=PROPERTY_DEFINITION_REPRESENTATION(#17,#15);
#14=REPRESENTATION('',(#18),#584);
#15=REPRESENTATION('',(#19),#584);
#16=PROPERTY_DEFINITION('pmi validation property','',#23);
#17=PROPERTY_DEFINITION('pmi validation property','',#23);
#18=VALUE_REPRESENTATION_ITEM('number of annotations',COUNT_MEASURE(0.));
#19=VALUE_REPRESENTATION_ITEM('number of views',COUNT_MEASURE(0.));
#20=SHAPE_REPRESENTATION_RELATIONSHIP('None',
'relationship between A731200-None and A731200-None',#32,#21);
#21=ADVANCED_BREP_SHAPE_REPRESENTATION('A731200-None',(#62,#63,#64),#584);
#22=SHAPE_DEFINITION_REPRESENTATION(#23,#32);
#23=PRODUCT_DEFINITION_SHAPE('','',#24);
#24=PRODUCT_DEFINITION(' ','',#26,#25);
#25=PRODUCT_DEFINITION_CONTEXT('part definition',#31,'design');
#26=PRODUCT_DEFINITION_FORMATION_WITH_SPECIFIED_SOURCE(' ',' ',#28,
 .NOT_KNOWN.);
#27=PRODUCT_RELATED_PRODUCT_CATEGORY('part','',(#28));
#28=PRODUCT('A731200','A731200',' ',(#29));
#29=PRODUCT_CONTEXT(' ',#31,'mechanical');
#30=APPLICATION_PROTOCOL_DEFINITION('international standard',
'automotive_design',2010,#31);
#31=APPLICATION_CONTEXT(
'core data for automotive mechanical design processes');
#32=SHAPE_REPRESENTATION('A731200-None',(#350),#584);
#33=CONICAL_SURFACE('',#384,55.,60.);
#34=B_SPLINE_CURVE_WITH_KNOTS('',3,(#523,#524,#525,#526,#527,#528),
 .UNSPECIFIED.,.F.,.F.,(4,2,4),(0.,0.5,1.),.UNSPECIFIED.);
#35=B_SPLINE_CURVE_WITH_KNOTS('',3,(#545,#546,#547,#548,#549,#550),
 .UNSPECIFIED.,.F.,.F.,(4,1,1,4),(0.,0.3333333333333,0.6666666666667,1.),
 .UNSPECIFIED.);
#36=B_SPLINE_CURVE_WITH_KNOTS('',3,(#558,#559,#560,#561,#562,#563),
 .UNSPECIFIED.,.F.,.F.,(4,1,1,4),(0.,0.3333333333333,0.6666666666667,1.),
 .UNSPECIFIED.);
#37=B_SPLINE_CURVE_WITH_KNOTS('',3,(#569,#570,#571,#572,#573,#574),
 .UNSPECIFIED.,.F.,.F.,(4,2,4),(0.,0.5,1.),.UNSPECIFIED.);
#38=B_SPLINE_CURVE_WITH_KNOTS('',3,(#575,#576,#577,#578,#579,#580),
 .UNSPECIFIED.,.F.,.F.,(4,2,4),(0.,0.5,1.),.UNSPECIFIED.);
#39=FACE_BOUND('',#130,.T.);
#40=FACE_BOUND('',#131,.T.);
#41=FACE_BOUND('',#134,.T.);
#42=FACE_BOUND('',#135,.T.);
#43=FACE_BOUND('',#136,.T.);
#44=FACE_BOUND('',#137,.T.);
#45=FACE_BOUND('',#138,.T.);
#46=FACE_BOUND('',#139,.T.);
#47=SURFACE_STYLE_USAGE(.BOTH.,#50);
#48=SURFACE_STYLE_USAGE(.BOTH.,#51);
#49=SURFACE_STYLE_USAGE(.BOTH.,#52);
#50=SURFACE_SIDE_STYLE('',(#53));
#51=SURFACE_SIDE_STYLE('',(#54));
#52=SURFACE_SIDE_STYLE('',(#55));
#53=SURFACE_STYLE_FILL_AREA(#56);
#54=SURFACE_STYLE_FILL_AREA(#57);
#55=SURFACE_STYLE_FILL_AREA(#58);
#56=FILL_AREA_STYLE('',(#59));
#57=FILL_AREA_STYLE('',(#60));
#58=FILL_AREA_STYLE('',(#61));
#59=FILL_AREA_STYLE_COLOUR('',#345);
#60=FILL_AREA_STYLE_COLOUR('',#346);
#61=FILL_AREA_STYLE_COLOUR('',#346);
#62=MANIFOLD_SOLID_BREP('NOCUT',#65);
#63=MANIFOLD_SOLID_BREP('NOCUT',#66);
#64=MANIFOLD_SOLID_BREP('NOCUT',#67);
#65=CLOSED_SHELL('',(#74,#75,#76,#77,#78,#79));
#66=CLOSED_SHELL('',(#80,#81,#82));
#67=CLOSED_SHELL('',(#83,#84,#85,#86,#87,#88,#89,#90,#91,#92,#93));
#68=CYLINDRICAL_SURFACE('',#360,9.);
#69=CYLINDRICAL_SURFACE('',#365,23.);
#70=CYLINDRICAL_SURFACE('',#370,20.);
#71=CYLINDRICAL_SURFACE('',#374,65.);
#72=CYLINDRICAL_SURFACE('',#382,45.);
#73=CYLINDRICAL_SURFACE('',#383,9.01);
#74=ADVANCED_FACE('',(#107),#94,.F.);
#75=ADVANCED_FACE('',(#108),#95,.T.);
#76=ADVANCED_FACE('',(#109),#96,.T.);
#77=ADVANCED_FACE('',(#110),#97,.T.);
#78=ADVANCED_FACE('',(#111),#68,.T.);
#79=ADVANCED_FACE('',(#112),#98,.T.);
#80=ADVANCED_FACE('',(#113),#99,.F.);
#81=ADVANCED_FACE('',(#39,#40),#69,.T.);
#82=ADVANCED_FACE('',(#114),#100,.F.);
#83=ADVANCED_FACE('',(#115),#101,.T.);
#84=ADVANCED_FACE('',(#41,#42),#70,.T.);
#85=ADVANCED_FACE('',(#43,#44),#102,.T.);
#86=ADVANCED_FACE('',(#45,#46),#71,.T.);
#87=ADVANCED_FACE('',(#116),#103,.T.);
#88=ADVANCED_FACE('',(#117),#104,.T.);
#89=ADVANCED_FACE('',(#118),#105,.F.);
#90=ADVANCED_FACE('',(#119),#106,.F.);
#91=ADVANCED_FACE('',(#120),#72,.T.);
#92=ADVANCED_FACE('',(#121),#73,.F.);
#93=ADVANCED_FACE('',(#122),#33,.T.);
#94=PLANE('',#355);
#95=PLANE('',#356);
#96=PLANE('',#357);
#97=PLANE('',#358);
#98=PLANE('',#361);
#99=PLANE('',#363);
#100=PLANE('',#366);
#101=PLANE('',#368);
#102=PLANE('',#372);
#103=PLANE('',#376);
#104=PLANE('',#378);
#105=PLANE('',#379);
#106=PLANE('',#380);
#107=FACE_OUTER_BOUND('',#123,.T.);
#108=FACE_OUTER_BOUND('',#124,.T.);
#109=FACE_OUTER_BOUND('',#125,.T.);
#110=FACE_OUTER_BOUND('',#126,.T.);
#111=FACE_OUTER_BOUND('',#127,.T.);
#112=FACE_OUTER_BOUND('',#128,.T.);
#113=FACE_OUTER_BOUND('',#129,.T.);
#114=FACE_OUTER_BOUND('',#132,.T.);
#115=FACE_OUTER_BOUND('',#133,.T.);
#116=FACE_OUTER_BOUND('',#140,.T.);
#117=FACE_OUTER_BOUND('',#141,.T.);
#118=FACE_OUTER_BOUND('',#142,.T.);
#119=FACE_OUTER_BOUND('',#143,.T.);
#120=FACE_OUTER_BOUND('',#144,.T.);
#121=FACE_OUTER_BOUND('',#145,.T.);
#122=FACE_OUTER_BOUND('',#146,.T.);
#123=EDGE_LOOP('',(#158,#159,#160,#161));
#124=EDGE_LOOP('',(#162,#163,#164,#165));
#125=EDGE_LOOP('',(#166,#167,#168,#169));
#126=EDGE_LOOP('',(#170,#171,#172,#173));
#127=EDGE_LOOP('',(#174,#175,#176,#177));
#128=EDGE_LOOP('',(#178,#179,#180,#181));
#129=EDGE_LOOP('',(#182));
#130=EDGE_LOOP('',(#183));
#131=EDGE_LOOP('',(#184));
#132=EDGE_LOOP('',(#185));
#133=EDGE_LOOP('',(#186));
#134=EDGE_LOOP('',(#187));
#135=EDGE_LOOP('',(#188));
#136=EDGE_LOOP('',(#189));
#137=EDGE_LOOP('',(#190));
#138=EDGE_LOOP('',(#191,#192));
#139=EDGE_LOOP('',(#193));
#140=EDGE_LOOP('',(#194,#195,#196,#197));
#141=EDGE_LOOP('',(#198,#199,#200,#201));
#142=EDGE_LOOP('',(#202,#203,#204,#205,#206));
#143=EDGE_LOOP('',(#207,#208,#209,#210,#211));
#144=EDGE_LOOP('',(#212,#213,#214,#215));
#145=EDGE_LOOP('',(#216,#217,#218,#219,#220,#221));
#146=EDGE_LOOP('',(#222,#223,#224,#225,#226,#227));
#147=CIRCLE('',#354,9.);
#148=CIRCLE('',#359,9.);
#149=CIRCLE('',#362,23.);
#150=CIRCLE('',#364,23.);
#151=CIRCLE('',#367,20.);
#152=CIRCLE('',#369,20.);
#153=CIRCLE('',#371,65.);
#154=CIRCLE('',#373,65.);
#155=CIRCLE('',#375,45.);
#156=CIRCLE('',#377,9.01);
#157=CIRCLE('',#381,45.);
#158=ORIENTED_EDGE('',*,*,#253,.F.);
#159=ORIENTED_EDGE('',*,*,#254,.F.);
#160=ORIENTED_EDGE('',*,*,#255,.F.);
#161=ORIENTED_EDGE('',*,*,#256,.F.);
#162=ORIENTED_EDGE('',*,*,#257,.T.);
#163=ORIENTED_EDGE('',*,*,#258,.F.);
#164=ORIENTED_EDGE('',*,*,#259,.F.);
#165=ORIENTED_EDGE('',*,*,#253,.T.);
#166=ORIENTED_EDGE('',*,*,#254,.T.);
#167=ORIENTED_EDGE('',*,*,#259,.T.);
#168=ORIENTED_EDGE('',*,*,#260,.F.);
#169=ORIENTED_EDGE('',*,*,#261,.F.);
#170=ORIENTED_EDGE('',*,*,#255,.T.);
#171=ORIENTED_EDGE('',*,*,#261,.T.);
#172=ORIENTED_EDGE('',*,*,#262,.F.);
#173=ORIENTED_EDGE('',*,*,#263,.F.);
#174=ORIENTED_EDGE('',*,*,#263,.T.);
#175=ORIENTED_EDGE('',*,*,#264,.F.);
#176=ORIENTED_EDGE('',*,*,#257,.F.);
#177=ORIENTED_EDGE('',*,*,#256,.T.);
#178=ORIENTED_EDGE('',*,*,#264,.T.);
#179=ORIENTED_EDGE('',*,*,#262,.T.);
#180=ORIENTED_EDGE('',*,*,#260,.T.);
#181=ORIENTED_EDGE('',*,*,#258,.T.);
#182=ORIENTED_EDGE('',*,*,#265,.T.);
#183=ORIENTED_EDGE('',*,*,#265,.F.);
#184=ORIENTED_EDGE('',*,*,#266,.T.);
#185=ORIENTED_EDGE('',*,*,#266,.F.);
#186=ORIENTED_EDGE('',*,*,#267,.T.);
#187=ORIENTED_EDGE('',*,*,#267,.F.);
#188=ORIENTED_EDGE('',*,*,#268,.T.);
#189=ORIENTED_EDGE('',*,*,#269,.F.);
#190=ORIENTED_EDGE('',*,*,#268,.F.);
#191=ORIENTED_EDGE('',*,*,#270,.T.);
#192=ORIENTED_EDGE('',*,*,#271,.T.);
#193=ORIENTED_EDGE('',*,*,#269,.T.);
#194=ORIENTED_EDGE('',*,*,#272,.T.);
#195=ORIENTED_EDGE('',*,*,#273,.T.);
#196=ORIENTED_EDGE('',*,*,#274,.T.);
#197=ORIENTED_EDGE('',*,*,#275,.T.);
#198=ORIENTED_EDGE('',*,*,#276,.F.);
#199=ORIENTED_EDGE('',*,*,#277,.F.);
#200=ORIENTED_EDGE('',*,*,#272,.F.);
#201=ORIENTED_EDGE('',*,*,#278,.F.);
#202=ORIENTED_EDGE('',*,*,#279,.F.);
#203=ORIENTED_EDGE('',*,*,#280,.T.);
#204=ORIENTED_EDGE('',*,*,#278,.T.);
#205=ORIENTED_EDGE('',*,*,#275,.F.);
#206=ORIENTED_EDGE('',*,*,#281,.T.);
#207=ORIENTED_EDGE('',*,*,#277,.T.);
#208=ORIENTED_EDGE('',*,*,#282,.F.);
#209=ORIENTED_EDGE('',*,*,#283,.F.);
#210=ORIENTED_EDGE('',*,*,#284,.F.);
#211=ORIENTED_EDGE('',*,*,#273,.F.);
#212=ORIENTED_EDGE('',*,*,#274,.F.);
#213=ORIENTED_EDGE('',*,*,#284,.T.);
#214=ORIENTED_EDGE('',*,*,#285,.T.);
#215=ORIENTED_EDGE('',*,*,#281,.F.);
#216=ORIENTED_EDGE('',*,*,#271,.F.);
#217=ORIENTED_EDGE('',*,*,#286,.T.);
#218=ORIENTED_EDGE('',*,*,#282,.T.);
#219=ORIENTED_EDGE('',*,*,#276,.T.);
#220=ORIENTED_EDGE('',*,*,#280,.F.);
#221=ORIENTED_EDGE('',*,*,#287,.T.);
#222=ORIENTED_EDGE('',*,*,#285,.F.);
#223=ORIENTED_EDGE('',*,*,#283,.T.);
#224=ORIENTED_EDGE('',*,*,#286,.F.);
#225=ORIENTED_EDGE('',*,*,#270,.F.);
#226=ORIENTED_EDGE('',*,*,#287,.F.);
#227=ORIENTED_EDGE('',*,*,#279,.T.);
#228=VERTEX_POINT('',#479);
#229=VERTEX_POINT('',#480);
#230=VERTEX_POINT('',#482);
#231=VERTEX_POINT('',#484);
#232=VERTEX_POINT('',#488);
#233=VERTEX_POINT('',#490);
#234=VERTEX_POINT('',#494);
#235=VERTEX_POINT('',#498);
#236=VERTEX_POINT('',#505);
#237=VERTEX_POINT('',#508);
#238=VERTEX_POINT('',#512);
#239=VERTEX_POINT('',#515);
#240=VERTEX_POINT('',#518);
#241=VERTEX_POINT('',#521);
#242=VERTEX_POINT('',#522);
#243=VERTEX_POINT('',#531);
#244=VERTEX_POINT('',#532);
#245=VERTEX_POINT('',#534);
#246=VERTEX_POINT('',#536);
#247=VERTEX_POINT('',#540);
#248=VERTEX_POINT('',#541);
#249=VERTEX_POINT('',#551);
#250=VERTEX_POINT('',#552);
#251=VERTEX_POINT('',#557);
#252=VERTEX_POINT('',#564);
#253=EDGE_CURVE('',#228,#229,#288,.T.);
#254=EDGE_CURVE('',#230,#228,#289,.T.);
#255=EDGE_CURVE('',#231,#230,#290,.T.);
#256=EDGE_CURVE('',#229,#231,#147,.T.);
#257=EDGE_CURVE('',#229,#232,#291,.T.);
#258=EDGE_CURVE('',#233,#232,#292,.T.);
#259=EDGE_CURVE('',#228,#233,#293,.T.);
#260=EDGE_CURVE('',#234,#233,#294,.T.);
#261=EDGE_CURVE('',#230,#234,#295,.T.);
#262=EDGE_CURVE('',#235,#234,#296,.T.);
#263=EDGE_CURVE('',#231,#235,#297,.T.);
#264=EDGE_CURVE('',#232,#235,#148,.T.);
#265=EDGE_CURVE('',#236,#236,#149,.T.);
#266=EDGE_CURVE('',#237,#237,#150,.T.);
#267=EDGE_CURVE('',#238,#238,#151,.T.);
#268=EDGE_CURVE('',#239,#239,#152,.T.);
#269=EDGE_CURVE('',#240,#240,#153,.T.);
#270=EDGE_CURVE('',#241,#242,#154,.T.);
#271=EDGE_CURVE('',#242,#241,#34,.T.);
#272=EDGE_CURVE('',#243,#244,#298,.T.);
#273=EDGE_CURVE('',#244,#245,#299,.T.);
#274=EDGE_CURVE('',#245,#246,#155,.T.);
#275=EDGE_CURVE('',#246,#243,#300,.T.);
#276=EDGE_CURVE('',#247,#248,#156,.T.);
#277=EDGE_CURVE('',#244,#247,#301,.T.);
#278=EDGE_CURVE('',#248,#243,#302,.T.);
#279=EDGE_CURVE('',#249,#250,#35,.T.);
#280=EDGE_CURVE('',#249,#248,#303,.T.);
#281=EDGE_CURVE('',#246,#250,#304,.T.);
#282=EDGE_CURVE('',#251,#247,#305,.T.);
#283=EDGE_CURVE('',#252,#251,#36,.T.);
#284=EDGE_CURVE('',#245,#252,#306,.T.);
#285=EDGE_CURVE('',#252,#250,#157,.T.);
#286=EDGE_CURVE('',#242,#251,#37,.T.);
#287=EDGE_CURVE('',#249,#241,#38,.T.);
#288=LINE('',#478,#307);
#289=LINE('',#481,#308);
#290=LINE('',#483,#309);
#291=LINE('',#487,#310);
#292=LINE('',#489,#311);
#293=LINE('',#491,#312);
#294=LINE('',#493,#313);
#295=LINE('',#495,#314);
#296=LINE('',#497,#315);
#297=LINE('',#499,#316);
#298=LINE('',#530,#317);
#299=LINE('',#533,#318);
#300=LINE('',#537,#319);
#301=LINE('',#542,#320);
#302=LINE('',#543,#321);
#303=LINE('',#553,#322);
#304=LINE('',#554,#323);
#305=LINE('',#556,#324);
#306=LINE('',#565,#325);
#307=VECTOR('',#393,1.);
#308=VECTOR('',#394,1.);
#309=VECTOR('',#395,1.);
#310=VECTOR('',#400,1.);
#311=VECTOR('',#401,1.);
#312=VECTOR('',#402,1.);
#313=VECTOR('',#405,1.);
#314=VECTOR('',#406,1.);
#315=VECTOR('',#409,1.);
#316=VECTOR('',#410,1.);
#317=VECTOR('',#445,1.);
#318=VECTOR('',#446,1.);
#319=VECTOR('',#449,1.);
#320=VECTOR('',#454,1.);
#321=VECTOR('',#455,1.);
#322=VECTOR('',#458,1.);
#323=VECTOR('',#459,1.);
#324=VECTOR('',#462,1.);
#325=VECTOR('',#463,1.);
#326=PRESENTATION_LAYER_ASSIGNMENT('1','Layer 1',(#351,#352,#353,#63));
#327=PRESENTATION_LAYER_ASSIGNMENT('4','Layer 4',(#62));
#328=PRESENTATION_LAYER_ASSIGNMENT('2','Layer 2',(#64));
#329=STYLED_ITEM('',(#335),#351);
#330=STYLED_ITEM('',(#336),#352);
#331=STYLED_ITEM('',(#337),#353);
#332=STYLED_ITEM('',(#338),#62);
#333=STYLED_ITEM('',(#339),#63);
#334=STYLED_ITEM('',(#340),#64);
#335=PRESENTATION_STYLE_ASSIGNMENT((#341));
#336=PRESENTATION_STYLE_ASSIGNMENT((#342));
#337=PRESENTATION_STYLE_ASSIGNMENT((#343));
#338=PRESENTATION_STYLE_ASSIGNMENT((#47));
#339=PRESENTATION_STYLE_ASSIGNMENT((#48));
#340=PRESENTATION_STYLE_ASSIGNMENT((#49));
#341=CURVE_STYLE('',#347,POSITIVE_LENGTH_MEASURE(0.18),#344);
#342=CURVE_STYLE('',#348,POSITIVE_LENGTH_MEASURE(0.18),#344);
#343=CURVE_STYLE('',#349,POSITIVE_LENGTH_MEASURE(0.18),#344);
#344=COLOUR_RGB('Strong Stone',0.576470588235294,0.54508278019379,0.392156862745098);
#345=COLOUR_RGB('Iron Gray',0.298023956664378,0.298023956664378,0.298023956664378);
#346=COLOUR_RGB('Medium Gray',0.490196078431373,0.490196078431373,0.490196078431373);
#347=DRAUGHTING_PRE_DEFINED_CURVE_FONT('continuous');
#348=DRAUGHTING_PRE_DEFINED_CURVE_FONT('continuous');
#349=DRAUGHTING_PRE_DEFINED_CURVE_FONT('continuous');
#350=AXIS2_PLACEMENT_3D('',#474,#385,#386);
#351=AXIS2_PLACEMENT_3D('MCS',#475,#387,#388);
#352=AXIS2_PLACEMENT_3D('PCS',#476,#389,#390);
#353=AXIS2_PLACEMENT_3D('CSW',#477,#391,#392);
#354=AXIS2_PLACEMENT_3D('',#485,#396,#397);
#355=AXIS2_PLACEMENT_3D('',#486,#398,#399);
#356=AXIS2_PLACEMENT_3D('',#492,#403,#404);
#357=AXIS2_PLACEMENT_3D('',#496,#407,#408);
#358=AXIS2_PLACEMENT_3D('',#500,#411,#412);
#359=AXIS2_PLACEMENT_3D('',#501,#413,#414);
#360=AXIS2_PLACEMENT_3D('',#502,#415,#416);
#361=AXIS2_PLACEMENT_3D('',#503,#417,#418);
#362=AXIS2_PLACEMENT_3D('',#504,#419,#420);
#363=AXIS2_PLACEMENT_3D('',#506,#421,#422);
#364=AXIS2_PLACEMENT_3D('',#507,#423,#424);
#365=AXIS2_PLACEMENT_3D('',#509,#425,#426);
#366=AXIS2_PLACEMENT_3D('',#510,#427,#428);
#367=AXIS2_PLACEMENT_3D('',#511,#429,#430);
#368=AXIS2_PLACEMENT_3D('',#513,#431,#432);
#369=AXIS2_PLACEMENT_3D('',#514,#433,#434);
#370=AXIS2_PLACEMENT_3D('',#516,#435,#436);
#371=AXIS2_PLACEMENT_3D('',#517,#437,#438);
#372=AXIS2_PLACEMENT_3D('',#519,#439,#440);
#373=AXIS2_PLACEMENT_3D('',#520,#441,#442);
#374=AXIS2_PLACEMENT_3D('',#529,#443,#444);
#375=AXIS2_PLACEMENT_3D('',#535,#447,#448);
#376=AXIS2_PLACEMENT_3D('',#538,#450,#451);
#377=AXIS2_PLACEMENT_3D('',#539,#452,#453);
#378=AXIS2_PLACEMENT_3D('',#544,#456,#457);
#379=AXIS2_PLACEMENT_3D('',#555,#460,#461);
#380=AXIS2_PLACEMENT_3D('',#566,#464,#465);
#381=AXIS2_PLACEMENT_3D('',#567,#466,#467);
#382=AXIS2_PLACEMENT_3D('',#568,#468,#469);
#383=AXIS2_PLACEMENT_3D('',#581,#470,#471);
#384=AXIS2_PLACEMENT_3D('',#582,#472,#473);
#385=DIRECTION('',(0.,0.,1.));
#386=DIRECTION('',(1.,0.,0.));
#387=DIRECTION('',(0.,0.,1.));
#388=DIRECTION('',(1.,0.,0.));
#389=DIRECTION('',(0.,0.,1.));
#390=DIRECTION('',(1.,0.,0.));
#391=DIRECTION('',(0.,0.,1.));
#392=DIRECTION('',(1.,0.,0.));
#393=DIRECTION('',(0.,0.,-1.));
#394=DIRECTION('',(0.,1.,0.));
#395=DIRECTION('',(0.,0.,1.));
#396=DIRECTION('',(-1.,0.,0.));
#397=DIRECTION('',(0.,1.,0.));
#398=DIRECTION('',(-1.,0.,0.));
#399=DIRECTION('',(0.,0.,-1.));
#400=DIRECTION('',(-1.,0.,0.));
#401=DIRECTION('',(0.,0.,-1.));
#402=DIRECTION('',(-1.,0.,0.));
#403=DIRECTION('',(0.,1.,0.));
#404=DIRECTION('',(0.,0.,-1.));
#405=DIRECTION('',(0.,1.,0.));
#406=DIRECTION('',(-1.,0.,0.));
#407=DIRECTION('',(0.,0.,1.));
#408=DIRECTION('',(0.,1.,0.));
#409=DIRECTION('',(0.,0.,1.));
#410=DIRECTION('',(-1.,0.,0.));
#411=DIRECTION('',(0.,-1.,0.));
#412=DIRECTION('',(0.,0.,1.));
#413=DIRECTION('',(-1.,0.,0.));
#414=DIRECTION('',(0.,1.,0.));
#415=DIRECTION('',(-1.,0.,0.));
#416=DIRECTION('',(0.,0.,-1.));
#417=DIRECTION('',(-1.,0.,0.));
#418=DIRECTION('',(0.,0.,-1.));
#419=DIRECTION('',(0.,0.,-1.));
#420=DIRECTION('',(0.,1.,0.));
#421=DIRECTION('',(0.,0.,1.));
#422=DIRECTION('',(0.,-1.,0.));
#423=DIRECTION('',(0.,0.,-1.));
#424=DIRECTION('',(0.,-1.,0.));
#425=DIRECTION('',(0.,0.,-1.));
#426=DIRECTION('',(1.,0.,0.));
#427=DIRECTION('',(0.,0.,-1.));
#428=DIRECTION('',(1.,0.,0.));
#429=DIRECTION('',(0.,0.,-1.));
#430=DIRECTION('',(0.,-1.,0.));
#431=DIRECTION('',(0.,0.,-1.));
#432=DIRECTION('',(1.,0.,0.));
#433=DIRECTION('',(0.,0.,-1.));
#434=DIRECTION('',(0.,-1.,0.));
#435=DIRECTION('',(0.,0.,-1.));
#436=DIRECTION('',(1.,0.,0.));
#437=DIRECTION('',(0.,0.,1.));
#438=DIRECTION('',(0.,-1.,0.));
#439=DIRECTION('',(0.,0.,-1.));
#440=DIRECTION('',(1.,0.,0.));
#441=DIRECTION('',(0.,0.,-1.));
#442=DIRECTION('',(-0.99391680762988,0.110133462266598,0.));
#443=DIRECTION('',(0.,0.,-1.));
#444=DIRECTION('',(1.,0.,0.));
#445=DIRECTION('',(0.,-1.,0.));
#446=DIRECTION('',(-1.,0.,0.));
#447=DIRECTION('',(0.,0.,1.));
#448=DIRECTION('',(0.,1.,0.));
#449=DIRECTION('',(1.,0.,0.));
#450=DIRECTION('',(0.,0.,1.));
#451=DIRECTION('',(0.,1.,0.));
#452=DIRECTION('',(1.,0.,0.));
#453=DIRECTION('',(0.,-1.,0.));
#454=DIRECTION('',(0.,0.,-1.));
#455=DIRECTION('',(0.,0.,1.));
#456=DIRECTION('',(-1.,0.,0.));
#457=DIRECTION('',(0.,0.,-1.));
#458=DIRECTION('',(1.,0.,0.));
#459=DIRECTION('',(-6.129094307493E-9,1.252544742434E-9,-1.));
#460=DIRECTION('',(0.,1.,0.));
#461=DIRECTION('',(0.,0.,-1.));
#462=DIRECTION('',(1.,0.,0.));
#463=DIRECTION('',(-6.129097363591E-9,-1.252546079476E-9,-1.));
#464=DIRECTION('',(0.,-1.,0.));
#465=DIRECTION('',(0.,0.,1.));
#466=DIRECTION('',(0.,0.,1.));
#467=DIRECTION('',(-0.979750509940366,-0.200222222222193,0.));
#468=DIRECTION('',(0.,0.,-1.));
#469=DIRECTION('',(1.,0.,0.));
#470=DIRECTION('',(-1.,0.,0.));
#471=DIRECTION('',(0.,0.,-1.));
#472=DIRECTION('',(0.,0.,-1.));
#473=DIRECTION('',(1.,0.,4.46530560613944E-17));
#474=CARTESIAN_POINT('',(0.,0.,0.));
#475=CARTESIAN_POINT('',(0.,0.,0.));
#476=CARTESIAN_POINT('',(0.,0.,0.));
#477=CARTESIAN_POINT('',(0.,0.,-40.));
#478=CARTESIAN_POINT('',(-27.5,9.,8.));
#479=CARTESIAN_POINT('',(-27.5,9.,9.));
#480=CARTESIAN_POINT('',(-27.5,9.,-14.5));
#481=CARTESIAN_POINT('',(-27.5,-8.,9.));
#482=CARTESIAN_POINT('',(-27.5,-9.,9.));
#483=CARTESIAN_POINT('',(-27.5,-9.,-14.5));
#484=CARTESIAN_POINT('',(-27.5,-9.,-14.5));
#485=CARTESIAN_POINT('',(-27.5,0.,-14.5));
#486=CARTESIAN_POINT('',(-27.5,0.,-12.));
#487=CARTESIAN_POINT('',(-27.5,9.,-14.5));
#488=CARTESIAN_POINT('',(-43.5,9.,-14.5));
#489=CARTESIAN_POINT('',(-43.5,9.,8.));
#490=CARTESIAN_POINT('',(-43.5,9.,9.));
#491=CARTESIAN_POINT('',(-27.5,9.,9.));
#492=CARTESIAN_POINT('',(-27.5,9.,9.));
#493=CARTESIAN_POINT('',(-43.5,-8.,9.));
#494=CARTESIAN_POINT('',(-43.5,-9.,9.));
#495=CARTESIAN_POINT('',(-27.5,-9.,9.));
#496=CARTESIAN_POINT('',(-27.5,-9.,9.));
#497=CARTESIAN_POINT('',(-43.5,-9.,-14.5));
#498=CARTESIAN_POINT('',(-43.5,-9.,-14.5));
#499=CARTESIAN_POINT('',(-27.5,-9.,-14.5));
#500=CARTESIAN_POINT('',(-27.5,-9.,-14.5));
#501=CARTESIAN_POINT('',(-43.5,0.,-14.5));
#502=CARTESIAN_POINT('',(-27.5,0.,-14.5));
#503=CARTESIAN_POINT('',(-43.5,0.,-12.));
#504=CARTESIAN_POINT('',(0.,0.,0.));
#505=CARTESIAN_POINT('',(0.,23.,0.));
#506=CARTESIAN_POINT('',(0.,0.,0.));
#507=CARTESIAN_POINT('',(0.,0.,50.));
#508=CARTESIAN_POINT('',(0.,-23.,50.));
#509=CARTESIAN_POINT('',(0.,0.,53.8));
#510=CARTESIAN_POINT('',(0.,0.,50.));
#511=CARTESIAN_POINT('',(0.,0.,-55.));
#512=CARTESIAN_POINT('',(0.,-20.,-55.));
#513=CARTESIAN_POINT('',(0.,0.,-55.));
#514=CARTESIAN_POINT('',(0.,0.,-40.));
#515=CARTESIAN_POINT('',(0.,-20.,-40.));
#516=CARTESIAN_POINT('',(0.,0.,-40.));
#517=CARTESIAN_POINT('',(0.,0.,-40.));
#518=CARTESIAN_POINT('',(0.,-65.,-40.));
#519=CARTESIAN_POINT('',(0.,0.,-40.));
#520=CARTESIAN_POINT('',(0.,0.,-21.54700538379));
#521=CARTESIAN_POINT('',(-64.7055965091362,6.17946441019502,-21.5470053837963));
#522=CARTESIAN_POINT('',(-64.7055965091362,-6.17946441019502,-21.5470053837963));
#523=CARTESIAN_POINT('',(-64.7055965091362,-6.17946441019502,-21.5470053837963));
#524=CARTESIAN_POINT('',(-64.8646507284131,-4.51399674949764,-23.1165783112554));
#525=CARTESIAN_POINT('',(-65.0000818803994,-2.26773439724595,-24.0005907021241));
#526=CARTESIAN_POINT('',(-64.9999180349481,2.27242584149817,-23.9994086871753));
#527=CARTESIAN_POINT('',(-64.8624239934044,4.53731304480111,-23.0946045277106));
#528=CARTESIAN_POINT('',(-64.7055965091362,6.17946441019502,-21.5470053837963));
#529=CARTESIAN_POINT('',(0.,0.,-25.3));
#530=CARTESIAN_POINT('',(-27.5,9.46,-2.75387351811318E-14));
#531=CARTESIAN_POINT('',(-27.5,9.01,-2.77555756156289E-14));
#532=CARTESIAN_POINT('',(-27.5,-9.01,-2.77555756156289E-14));
#533=CARTESIAN_POINT('',(0.,-9.01,-2.75387351811318E-14));
#534=CARTESIAN_POINT('',(-44.0887728860296,-9.00999998747422,-2.75387351811318E-14));
#535=CARTESIAN_POINT('',(0.,0.,0.));
#536=CARTESIAN_POINT('',(-44.0887728860296,9.00999998747422,-2.75387351811318E-14));
#537=CARTESIAN_POINT('',(0.,9.01,-2.75387351811318E-14));
#538=CARTESIAN_POINT('',(0.,0.,-2.75387351811318E-14));
#539=CARTESIAN_POINT('',(-27.5,0.,-14.99));
#540=CARTESIAN_POINT('',(-27.5,-9.01,-14.99));
#541=CARTESIAN_POINT('',(-27.5,9.01,-14.99));
#542=CARTESIAN_POINT('',(-27.5,-9.01,-0.7));
#543=CARTESIAN_POINT('',(-27.5,9.01,-14.99));
#544=CARTESIAN_POINT('',(-27.5,0.,0.));
#545=CARTESIAN_POINT('',(-52.88084925263,9.01,-14.99));
#546=CARTESIAN_POINT('',(-51.77274911932,9.01,-14.35932693819));
#547=CARTESIAN_POINT('',(-49.6442166167,9.01,-13.14900327547));
#548=CARTESIAN_POINT('',(-46.73381980636,9.01,-11.49733082264));
#549=CARTESIAN_POINT('',(-44.94333468385,9.01,-10.48339072589));
#550=CARTESIAN_POINT('',(-44.08877294732,9.01,-10.));
#551=CARTESIAN_POINT('',(-52.8808492526258,9.01,-14.99));
#552=CARTESIAN_POINT('',(-44.08877294732,9.01,-10.));
#553=CARTESIAN_POINT('',(-32.55123459676,9.01,-14.99));
#554=CARTESIAN_POINT('',(-44.08877289032,9.009999988351,-0.7000000581787));
#555=CARTESIAN_POINT('',(-27.5,9.01,-0.7));
#556=CARTESIAN_POINT('',(-52.88084925263,-9.01,-14.99));
#557=CARTESIAN_POINT('',(-52.8808492526258,-9.01,-14.99));
#558=CARTESIAN_POINT('',(-44.08877294732,-9.01,-10.));
#559=CARTESIAN_POINT('',(-44.94333257258,-9.01,-10.48338953163));
#560=CARTESIAN_POINT('',(-46.73381496679,-9.01,-11.49732807753));
#561=CARTESIAN_POINT('',(-49.64421890905,-9.01,-13.14900457607));
#562=CARTESIAN_POINT('',(-51.77275013672,-9.01,-14.35932751724));
#563=CARTESIAN_POINT('',(-52.88084925263,-9.01,-14.99));
#564=CARTESIAN_POINT('',(-44.08877294732,-9.01,-10.));
#565=CARTESIAN_POINT('',(-44.08877289032,-9.009999988351,-0.7000000581787));
#566=CARTESIAN_POINT('',(-27.5,-9.01,-14.99));
#567=CARTESIAN_POINT('',(0.,0.,-10.));
#568=CARTESIAN_POINT('',(0.,0.,261.7300115945));
#569=CARTESIAN_POINT('',(-64.7055965091362,-6.17946441019501,-21.5470053837963));
#570=CARTESIAN_POINT('',(-62.8808935125302,-7.2310146273439,-20.5560016005048));
#571=CARTESIAN_POINT('',(-60.9156505676083,-7.90057567105875,-19.4810288615941));
#572=CARTESIAN_POINT('',(-56.942484127018,-8.7940062152343,-17.2821367446591));
#573=CARTESIAN_POINT('',(-54.9064560272464,-9.00999999999977,-16.1428702038541));
#574=CARTESIAN_POINT('',(-52.8808492526248,-9.01,-14.9900000000018));
#575=CARTESIAN_POINT('',(-52.8808492526248,9.01,-14.9900000000018));
#576=CARTESIAN_POINT('',(-54.9083946103391,9.00999999999977,-16.1439735446966));
#577=CARTESIAN_POINT('',(-56.9168265773029,8.79739680309741,-17.267816627082));
#578=CARTESIAN_POINT('',(-60.8844064459372,7.90994645530468,-19.4638558506028));
#579=CARTESIAN_POINT('',(-62.8712123947704,7.23659371692808,-20.5507437452022));
#580=CARTESIAN_POINT('',(-64.7055965091362,6.17946441019502,-21.5470053837963));
#581=CARTESIAN_POINT('',(-27.5,0.,-14.99));
#582=CARTESIAN_POINT('',(0.,0.,-15.7735026919));
#583=MECHANICAL_DESIGN_GEOMETRIC_PRESENTATION_REPRESENTATION('',(#329,#330,
#331,#332,#333,#334),#584);
#584=(
GEOMETRIC_REPRESENTATION_CONTEXT(3)
GLOBAL_UNCERTAINTY_ASSIGNED_CONTEXT((#585))
GLOBAL_UNIT_ASSIGNED_CONTEXT((#591,#587,#586))
REPRESENTATION_CONTEXT('A731200','TOP_LEVEL_ASSEMBLY_PART')
);
#585=UNCERTAINTY_MEASURE_WITH_UNIT(LENGTH_MEASURE(0.0508),#591,
'DISTANCE_ACCURACY_VALUE','Maximum Tolerance applied to model');
#586=(
NAMED_UNIT(*)
SI_UNIT($,.STERADIAN.)
SOLID_ANGLE_UNIT()
);
#587=(
CONVERSION_BASED_UNIT('DEGREE',#589)
NAMED_UNIT(#588)
PLANE_ANGLE_UNIT()
);
#588=DIMENSIONAL_EXPONENTS(0.,0.,0.,0.,0.,0.,0.);
#589=PLANE_ANGLE_MEASURE_WITH_UNIT(PLANE_ANGLE_MEASURE(0.0174532925),#590);
#590=(
NAMED_UNIT(*)
PLANE_ANGLE_UNIT()
SI_UNIT($,.RADIAN.)
);
#591=(
LENGTH_UNIT()
NAMED_UNIT(*)
SI_UNIT(.MILLI.,.METRE.)
);
ENDSEC;
END-ISO-10303-21;
