ISO-10303-21;
HEADER;
/* Generated by software containing ST-Developer
 * from STEP Tools, Inc. (www.steptools.com) 
 */
/* OPTION: using custom schema-name function */

FILE_DESCRIPTION(
/* description */ (''),
/* implementation_level */ '2;1');

FILE_NAME(
/* name */ 'MTH-1-11.5NPT-XC-V048.stp',
/* time_stamp */ '2018-04-17T12:11:16+06:00',
/* author */ (''),
/* organization */ (''),
/* preprocessor_version */ 'ST-DEVELOPER v16',
/* originating_system */ 'SIEMENS PLM Software NX 11.0',
/* authorisation */ '');

FILE_SCHEMA (('AUTOMOTIVE_DESIGN { 1 0 10303 214 3 1 1 1 }'));
ENDSEC;

DATA;
#10=CONSTRUCTIVE_GEOMETRY_REPRESENTATION_RELATIONSHIP(
'supplemental geometry','',#32,#11);
#11=CONSTRUCTIVE_GEOMETRY_REPRESENTATION('supplemental geometry',(#206,
#207,#208),#333);
#12=PROPERTY_DEFINITION_REPRESENTATION(#16,#14);
#13=PROPERTY_DEFINITION_REPRESENTATION(#17,#15);
#14=REPRESENTATION('',(#18),#333);
#15=REPRESENTATION('',(#19),#333);
#16=PROPERTY_DEFINITION('pmi validation property','',#23);
#17=PROPERTY_DEFINITION('pmi validation property','',#23);
#18=VALUE_REPRESENTATION_ITEM('number of annotations',COUNT_MEASURE(0.));
#19=VALUE_REPRESENTATION_ITEM('number of views',COUNT_MEASURE(0.));
#20=SHAPE_REPRESENTATION_RELATIONSHIP('None',
'relationship between MTH-1-11.5NPT-XC-V048-None and MTH-1-11.5NPT-XC-
V048-None',#32,#21);
#21=ADVANCED_BREP_SHAPE_REPRESENTATION('MTH-1-11.5NPT-XC-V048-None',(#51,
#52,#53),#333);
#22=SHAPE_DEFINITION_REPRESENTATION(#23,#32);
#23=PRODUCT_DEFINITION_SHAPE('','',#24);
#24=PRODUCT_DEFINITION(' ','',#26,#25);
#25=PRODUCT_DEFINITION_CONTEXT('part definition',#31,'design');
#26=PRODUCT_DEFINITION_FORMATION_WITH_SPECIFIED_SOURCE(' ',' ',#28,
 .NOT_KNOWN.);
#27=PRODUCT_RELATED_PRODUCT_CATEGORY('part','',(#28));
#28=PRODUCT('MTH-1-11.5NPT-XC-V048','MTH-1-11.5NPT-XC-V048',' ',(#29));
#29=PRODUCT_CONTEXT(' ',#31,'mechanical');
#30=APPLICATION_PROTOCOL_DEFINITION('international standard',
'automotive_design',2010,#31);
#31=APPLICATION_CONTEXT(
'core data for automotive mechanical design processes');
#32=SHAPE_REPRESENTATION('MTH-1-11.5NPT-XC-V048-None',(#205),#333);
#33=CYLINDRICAL_SURFACE('',#221,14.);
#34=CYLINDRICAL_SURFACE('',#225,14.);
#35=CYLINDRICAL_SURFACE('',#230,14.15);
#36=SURFACE_STYLE_USAGE(.BOTH.,#39);
#37=SURFACE_STYLE_USAGE(.BOTH.,#40);
#38=SURFACE_STYLE_USAGE(.BOTH.,#41);
#39=SURFACE_SIDE_STYLE('',(#42));
#40=SURFACE_SIDE_STYLE('',(#43));
#41=SURFACE_SIDE_STYLE('',(#44));
#42=SURFACE_STYLE_FILL_AREA(#45);
#43=SURFACE_STYLE_FILL_AREA(#46);
#44=SURFACE_STYLE_FILL_AREA(#47);
#45=FILL_AREA_STYLE('',(#48));
#46=FILL_AREA_STYLE('',(#49));
#47=FILL_AREA_STYLE('',(#50));
#48=FILL_AREA_STYLE_COLOUR('',#200);
#49=FILL_AREA_STYLE_COLOUR('',#201);
#50=FILL_AREA_STYLE_COLOUR('',#201);
#51=MANIFOLD_SOLID_BREP('CUT',#54);
#52=MANIFOLD_SOLID_BREP('NOCUT',#55);
#53=MANIFOLD_SOLID_BREP('NOCUT',#56);
#54=CLOSED_SHELL('',(#77,#78,#79,#80));
#55=CLOSED_SHELL('',(#81,#82,#83,#84));
#56=CLOSED_SHELL('',(#85,#86,#87,#88,#89,#90));
#57=CONICAL_SURFACE('',#212,16.729542465,0.64459064426355);
#58=CONICAL_SURFACE('',#214,16.457,16.5000000003239);
#59=CONICAL_SURFACE('',#219,14.,44.9999999999999);
#60=CONICAL_SURFACE('',#228,14.15,81.0693783187151);
#61=FACE_BOUND('',#105,.T.);
#62=FACE_BOUND('',#106,.T.);
#63=FACE_BOUND('',#107,.T.);
#64=FACE_BOUND('',#108,.T.);
#65=FACE_BOUND('',#111,.T.);
#66=FACE_BOUND('',#112,.T.);
#67=FACE_BOUND('',#113,.T.);
#68=FACE_BOUND('',#114,.T.);
#69=FACE_BOUND('',#116,.T.);
#70=FACE_BOUND('',#117,.T.);
#71=FACE_BOUND('',#118,.T.);
#72=FACE_BOUND('',#119,.T.);
#73=FACE_BOUND('',#120,.T.);
#74=FACE_BOUND('',#121,.T.);
#75=FACE_BOUND('',#122,.T.);
#76=FACE_BOUND('',#123,.T.);
#77=ADVANCED_FACE('',(#98),#91,.T.);
#78=ADVANCED_FACE('',(#61,#62),#57,.T.);
#79=ADVANCED_FACE('',(#63,#64),#58,.T.);
#80=ADVANCED_FACE('',(#99),#92,.T.);
#81=ADVANCED_FACE('',(#100),#93,.T.);
#82=ADVANCED_FACE('',(#65,#66),#59,.T.);
#83=ADVANCED_FACE('',(#67,#68),#33,.T.);
#84=ADVANCED_FACE('',(#101),#94,.F.);
#85=ADVANCED_FACE('',(#69,#70),#34,.T.);
#86=ADVANCED_FACE('',(#71,#72),#60,.T.);
#87=ADVANCED_FACE('',(#73,#74),#35,.T.);
#88=ADVANCED_FACE('',(#75,#76),#95,.T.);
#89=ADVANCED_FACE('',(#102),#96,.T.);
#90=ADVANCED_FACE('',(#103),#97,.T.);
#91=PLANE('',#210);
#92=PLANE('',#215);
#93=PLANE('',#217);
#94=PLANE('',#222);
#95=PLANE('',#231);
#96=PLANE('',#232);
#97=PLANE('',#233);
#98=FACE_OUTER_BOUND('',#104,.T.);
#99=FACE_OUTER_BOUND('',#109,.T.);
#100=FACE_OUTER_BOUND('',#110,.T.);
#101=FACE_OUTER_BOUND('',#115,.T.);
#102=FACE_OUTER_BOUND('',#124,.T.);
#103=FACE_OUTER_BOUND('',#125,.T.);
#104=EDGE_LOOP('',(#126));
#105=EDGE_LOOP('',(#127));
#106=EDGE_LOOP('',(#128));
#107=EDGE_LOOP('',(#129));
#108=EDGE_LOOP('',(#130));
#109=EDGE_LOOP('',(#131));
#110=EDGE_LOOP('',(#132));
#111=EDGE_LOOP('',(#133));
#112=EDGE_LOOP('',(#134));
#113=EDGE_LOOP('',(#135));
#114=EDGE_LOOP('',(#136));
#115=EDGE_LOOP('',(#137));
#116=EDGE_LOOP('',(#138));
#117=EDGE_LOOP('',(#139));
#118=EDGE_LOOP('',(#140));
#119=EDGE_LOOP('',(#141));
#120=EDGE_LOOP('',(#142));
#121=EDGE_LOOP('',(#143));
#122=EDGE_LOOP('',(#144));
#123=EDGE_LOOP('',(#145));
#124=EDGE_LOOP('',(#146));
#125=EDGE_LOOP('',(#147));
#126=ORIENTED_EDGE('',*,*,#159,.F.);
#127=ORIENTED_EDGE('',*,*,#159,.T.);
#128=ORIENTED_EDGE('',*,*,#160,.F.);
#129=ORIENTED_EDGE('',*,*,#160,.T.);
#130=ORIENTED_EDGE('',*,*,#161,.F.);
#131=ORIENTED_EDGE('',*,*,#161,.T.);
#132=ORIENTED_EDGE('',*,*,#162,.F.);
#133=ORIENTED_EDGE('',*,*,#162,.T.);
#134=ORIENTED_EDGE('',*,*,#163,.F.);
#135=ORIENTED_EDGE('',*,*,#164,.T.);
#136=ORIENTED_EDGE('',*,*,#163,.T.);
#137=ORIENTED_EDGE('',*,*,#164,.F.);
#138=ORIENTED_EDGE('',*,*,#165,.T.);
#139=ORIENTED_EDGE('',*,*,#166,.F.);
#140=ORIENTED_EDGE('',*,*,#167,.T.);
#141=ORIENTED_EDGE('',*,*,#168,.F.);
#142=ORIENTED_EDGE('',*,*,#169,.T.);
#143=ORIENTED_EDGE('',*,*,#167,.F.);
#144=ORIENTED_EDGE('',*,*,#166,.T.);
#145=ORIENTED_EDGE('',*,*,#169,.F.);
#146=ORIENTED_EDGE('',*,*,#168,.T.);
#147=ORIENTED_EDGE('',*,*,#165,.F.);
#148=VERTEX_POINT('',#297);
#149=VERTEX_POINT('',#300);
#150=VERTEX_POINT('',#303);
#151=VERTEX_POINT('',#307);
#152=VERTEX_POINT('',#310);
#153=VERTEX_POINT('',#313);
#154=VERTEX_POINT('',#317);
#155=VERTEX_POINT('',#319);
#156=VERTEX_POINT('',#322);
#157=VERTEX_POINT('',#324);
#158=VERTEX_POINT('',#327);
#159=EDGE_CURVE('',#148,#148,#170,.T.);
#160=EDGE_CURVE('',#149,#149,#171,.T.);
#161=EDGE_CURVE('',#150,#150,#172,.T.);
#162=EDGE_CURVE('',#151,#151,#173,.T.);
#163=EDGE_CURVE('',#152,#152,#174,.T.);
#164=EDGE_CURVE('',#153,#153,#175,.T.);
#165=EDGE_CURVE('',#154,#154,#176,.T.);
#166=EDGE_CURVE('',#155,#155,#177,.T.);
#167=EDGE_CURVE('',#156,#156,#178,.T.);
#168=EDGE_CURVE('',#157,#157,#179,.T.);
#169=EDGE_CURVE('',#158,#158,#180,.T.);
#170=CIRCLE('',#209,16.729542465);
#171=CIRCLE('',#211,16.457);
#172=CIRCLE('',#213,14.45);
#173=CIRCLE('',#216,12.6);
#174=CIRCLE('',#218,14.);
#175=CIRCLE('',#220,14.);
#176=CIRCLE('',#223,14.);
#177=CIRCLE('',#224,14.);
#178=CIRCLE('',#226,14.15);
#179=CIRCLE('',#227,16.729542465);
#180=CIRCLE('',#229,14.15);
#181=PRESENTATION_LAYER_ASSIGNMENT('1','Layer 1',(#206,#207,#208,#52));
#182=PRESENTATION_LAYER_ASSIGNMENT('3','Layer 3',(#51));
#183=PRESENTATION_LAYER_ASSIGNMENT('2','Layer 2',(#53));
#184=STYLED_ITEM('',(#190),#206);
#185=STYLED_ITEM('',(#191),#207);
#186=STYLED_ITEM('',(#192),#208);
#187=STYLED_ITEM('',(#193),#51);
#188=STYLED_ITEM('',(#194),#52);
#189=STYLED_ITEM('',(#195),#53);
#190=PRESENTATION_STYLE_ASSIGNMENT((#196));
#191=PRESENTATION_STYLE_ASSIGNMENT((#197));
#192=PRESENTATION_STYLE_ASSIGNMENT((#198));
#193=PRESENTATION_STYLE_ASSIGNMENT((#36));
#194=PRESENTATION_STYLE_ASSIGNMENT((#37));
#195=PRESENTATION_STYLE_ASSIGNMENT((#38));
#196=CURVE_STYLE('',#202,POSITIVE_LENGTH_MEASURE(0.18),#199);
#197=CURVE_STYLE('',#203,POSITIVE_LENGTH_MEASURE(0.18),#199);
#198=CURVE_STYLE('',#204,POSITIVE_LENGTH_MEASURE(0.18),#199);
#199=COLOUR_RGB('Strong Stone',0.576470588235294,0.54508278019379,0.392156862745098);
#200=COLOUR_RGB('Light Gray',0.8,0.8,0.8);
#201=COLOUR_RGB('Medium Gray',0.490196078431373,0.490196078431373,0.490196078431373);
#202=DRAUGHTING_PRE_DEFINED_CURVE_FONT('continuous');
#203=DRAUGHTING_PRE_DEFINED_CURVE_FONT('continuous');
#204=DRAUGHTING_PRE_DEFINED_CURVE_FONT('continuous');
#205=AXIS2_PLACEMENT_3D('',#292,#234,#235);
#206=AXIS2_PLACEMENT_3D('MCS',#293,#236,#237);
#207=AXIS2_PLACEMENT_3D('PCS',#294,#238,#239);
#208=AXIS2_PLACEMENT_3D('CIP',#295,#240,#241);
#209=AXIS2_PLACEMENT_3D('',#296,#242,#243);
#210=AXIS2_PLACEMENT_3D('',#298,#244,#245);
#211=AXIS2_PLACEMENT_3D('',#299,#246,#247);
#212=AXIS2_PLACEMENT_3D('',#301,#248,#249);
#213=AXIS2_PLACEMENT_3D('',#302,#250,#251);
#214=AXIS2_PLACEMENT_3D('',#304,#252,#253);
#215=AXIS2_PLACEMENT_3D('',#305,#254,#255);
#216=AXIS2_PLACEMENT_3D('',#306,#256,#257);
#217=AXIS2_PLACEMENT_3D('',#308,#258,#259);
#218=AXIS2_PLACEMENT_3D('',#309,#260,#261);
#219=AXIS2_PLACEMENT_3D('',#311,#262,#263);
#220=AXIS2_PLACEMENT_3D('',#312,#264,#265);
#221=AXIS2_PLACEMENT_3D('',#314,#266,#267);
#222=AXIS2_PLACEMENT_3D('',#315,#268,#269);
#223=AXIS2_PLACEMENT_3D('',#316,#270,#271);
#224=AXIS2_PLACEMENT_3D('',#318,#272,#273);
#225=AXIS2_PLACEMENT_3D('',#320,#274,#275);
#226=AXIS2_PLACEMENT_3D('',#321,#276,#277);
#227=AXIS2_PLACEMENT_3D('',#323,#278,#279);
#228=AXIS2_PLACEMENT_3D('',#325,#280,#281);
#229=AXIS2_PLACEMENT_3D('',#326,#282,#283);
#230=AXIS2_PLACEMENT_3D('',#328,#284,#285);
#231=AXIS2_PLACEMENT_3D('',#329,#286,#287);
#232=AXIS2_PLACEMENT_3D('',#330,#288,#289);
#233=AXIS2_PLACEMENT_3D('',#331,#290,#291);
#234=DIRECTION('',(0.,0.,1.));
#235=DIRECTION('',(1.,0.,0.));
#236=DIRECTION('',(0.,0.,1.));
#237=DIRECTION('',(1.,0.,0.));
#238=DIRECTION('',(0.,0.,1.));
#239=DIRECTION('',(1.,0.,0.));
#240=DIRECTION('',(0.,0.,1.));
#241=DIRECTION('',(1.,0.,0.));
#242=DIRECTION('',(-1.65907559478668E-15,1.65907559478668E-15,-1.));
#243=DIRECTION('',(0.,1.,1.65907559478668E-15));
#244=DIRECTION('',(0.,0.,1.));
#245=DIRECTION('',(0.,1.,0.));
#246=DIRECTION('',(0.,0.,-1.));
#247=DIRECTION('',(-1.,0.,0.));
#248=DIRECTION('',(1.65907559478668E-15,-1.65907559478668E-15,1.));
#249=DIRECTION('',(7.86420207272418E-30,1.,-1.48795557872499E-15));
#250=DIRECTION('',(0.,0.,-1.));
#251=DIRECTION('',(-1.,0.,0.));
#252=DIRECTION('',(0.,0.,1.));
#253=DIRECTION('',(-1.,0.,-8.87694108088106E-17));
#254=DIRECTION('',(0.,0.,-1.));
#255=DIRECTION('',(1.,0.,0.));
#256=DIRECTION('',(0.,6.12323399573677E-17,-1.));
#257=DIRECTION('',(0.,1.,0.));
#258=DIRECTION('',(0.,-6.12323399573677E-17,1.));
#259=DIRECTION('',(0.,-1.,-5.55111512312578E-17));
#260=DIRECTION('',(-4.22218379070863E-32,3.4074925420973E-16,-1.));
#261=DIRECTION('',(0.,1.,0.));
#262=DIRECTION('',(-4.22218379070863E-32,3.4074925420973E-16,-1.));
#263=DIRECTION('',(0.,-1.,-3.42154531750851E-16));
#264=DIRECTION('',(0.,0.,1.));
#265=DIRECTION('',(1.,0.,0.));
#266=DIRECTION('',(0.,0.,1.));
#267=DIRECTION('',(-1.,0.,0.));
#268=DIRECTION('',(0.,0.,1.));
#269=DIRECTION('',(1.,0.,0.));
#270=DIRECTION('',(0.,0.,-1.));
#271=DIRECTION('',(1.,0.,0.));
#272=DIRECTION('',(0.,0.,-1.));
#273=DIRECTION('',(-1.,0.,0.));
#274=DIRECTION('',(0.,0.,1.));
#275=DIRECTION('',(-1.,0.,0.));
#276=DIRECTION('',(-9.80762389244838E-16,9.80762389244839E-16,-1.));
#277=DIRECTION('',(1.06381702100631E-45,1.,9.80762389244838E-16));
#278=DIRECTION('',(-1.65907559478668E-15,1.65907559478668E-15,-1.));
#279=DIRECTION('',(0.,1.,1.65907559478668E-15));
#280=DIRECTION('',(-9.80762389244838E-16,9.80762389244838E-16,-1.));
#281=DIRECTION('',(-2.98861874728541E-32,-1.,-9.6830426255315E-16));
#282=DIRECTION('',(0.,0.,-1.));
#283=DIRECTION('',(-1.,0.,0.));
#284=DIRECTION('',(0.,0.,-1.));
#285=DIRECTION('',(1.,0.,0.));
#286=DIRECTION('',(0.,0.,1.));
#287=DIRECTION('',(0.,-1.,0.));
#288=DIRECTION('',(0.,0.,-1.));
#289=DIRECTION('',(-1.,0.,0.));
#290=DIRECTION('',(0.,0.,1.));
#291=DIRECTION('',(1.,0.,0.));
#292=CARTESIAN_POINT('',(0.,0.,0.));
#293=CARTESIAN_POINT('',(8.67361737988404E-16,2.64371857738865E-15,0.));
#294=CARTESIAN_POINT('',(0.,0.,69.));
#295=CARTESIAN_POINT('',(1.73472347597681E-15,7.04297731246584E-15,-81.));
#296=CARTESIAN_POINT('',(-2.28270838352679E-29,7.02216063075414E-15,-50.));
#297=CARTESIAN_POINT('',(-2.28270838352679E-29,16.729542465,-50.));
#298=CARTESIAN_POINT('',(-16.729542465,16.729542465,-50.));
#299=CARTESIAN_POINT('',(1.97215226305253E-31,1.05332409461312E-14,-74.224481551));
#300=CARTESIAN_POINT('',(-16.457,1.05332409461312E-14,-74.224481551));
#301=CARTESIAN_POINT('',(-2.28270838352679E-29,7.02216063075414E-15,-50.));
#302=CARTESIAN_POINT('',(1.73472347597681E-15,7.04297731246584E-15,-81.));
#303=CARTESIAN_POINT('',(-14.45,7.04297731246584E-15,-81.));
#304=CARTESIAN_POINT('',(1.97215226305253E-31,1.05332409461312E-14,-74.224481551));
#305=CARTESIAN_POINT('',(14.45,-14.45,-81.));
#306=CARTESIAN_POINT('',(0.,0.,69.));
#307=CARTESIAN_POINT('',(0.,12.6,69.));
#308=CARTESIAN_POINT('',(12.6,-12.6,69.));
#309=CARTESIAN_POINT('',(1.73472347597681E-15,1.77635683940025E-15,67.6));
#310=CARTESIAN_POINT('',(1.73472347597681E-15,14.,67.6));
#311=CARTESIAN_POINT('',(1.73472347597681E-15,-1.73472347597681E-15,67.6));
#312=CARTESIAN_POINT('',(1.73472347597681E-15,1.77635683940025E-15,0.));
#313=CARTESIAN_POINT('',(14.,1.77635683940025E-15,0.));
#314=CARTESIAN_POINT('',(1.73472347597681E-15,1.77635683940025E-15,48.));
#315=CARTESIAN_POINT('',(0.,0.,0.));
#316=CARTESIAN_POINT('',(1.73472347597681E-15,5.28743715477731E-15,6.93889390390723E-15));
#317=CARTESIAN_POINT('',(14.,5.28743715477731E-15,6.93889390390723E-15));
#318=CARTESIAN_POINT('',(1.73472347597681E-15,5.28743715477731E-15,-30.));
#319=CARTESIAN_POINT('',(-14.,5.28743715477731E-15,-30.));
#320=CARTESIAN_POINT('',(1.73472347597681E-15,5.28743715477731E-15,-30.));
#321=CARTESIAN_POINT('',(-6.60819093760724E-30,8.77770078844265E-15,-49.59464187));
#322=CARTESIAN_POINT('',(-6.60819093760722E-30,14.15,-49.59464187));
#323=CARTESIAN_POINT('',(-2.28270838352679E-29,7.02216063075414E-15,-50.));
#324=CARTESIAN_POINT('',(-2.28270838352679E-29,16.729542465,-50.));
#325=CARTESIAN_POINT('',(-6.60819093760724E-30,7.02216063075412E-15,-49.59464187));
#326=CARTESIAN_POINT('',(1.47911419728939E-31,7.02216063075412E-15,-30.));
#327=CARTESIAN_POINT('',(-14.15,7.02216063075412E-15,-30.));
#328=CARTESIAN_POINT('',(1.47911419728939E-31,7.02216063075412E-15,-30.));
#329=CARTESIAN_POINT('',(14.15,-14.15,-30.));
#330=CARTESIAN_POINT('',(-16.729542465,16.7295424650001,-50.));
#331=CARTESIAN_POINT('',(0.,0.,0.));
#332=MECHANICAL_DESIGN_GEOMETRIC_PRESENTATION_REPRESENTATION('',(#184,#185,
#186,#187,#188,#189),#333);
#333=(
GEOMETRIC_REPRESENTATION_CONTEXT(3)
GLOBAL_UNCERTAINTY_ASSIGNED_CONTEXT((#334))
GLOBAL_UNIT_ASSIGNED_CONTEXT((#340,#336,#335))
REPRESENTATION_CONTEXT('MTH-1-11','TOP_LEVEL_ASSEMBLY_PART')
);
#334=UNCERTAINTY_MEASURE_WITH_UNIT(LENGTH_MEASURE(2.E-5),#340,
'DISTANCE_ACCURACY_VALUE','Maximum Tolerance applied to model');
#335=(
NAMED_UNIT(*)
SI_UNIT($,.STERADIAN.)
SOLID_ANGLE_UNIT()
);
#336=(
CONVERSION_BASED_UNIT('DEGREE',#338)
NAMED_UNIT(#337)
PLANE_ANGLE_UNIT()
);
#337=DIMENSIONAL_EXPONENTS(0.,0.,0.,0.,0.,0.,0.);
#338=PLANE_ANGLE_MEASURE_WITH_UNIT(PLANE_ANGLE_MEASURE(0.0174532925),#339);
#339=(
NAMED_UNIT(*)
PLANE_ANGLE_UNIT()
SI_UNIT($,.RADIAN.)
);
#340=(
LENGTH_UNIT()
NAMED_UNIT(*)
SI_UNIT(.MILLI.,.METRE.)
);
ENDSEC;
END-ISO-10303-21;
