ISO-10303-21;
HEADER;
/* Generated by software containing ST-Developer
 * from STEP Tools, Inc. (www.steptools.com) 
 */
/* OPTION: using custom schema-name function */

FILE_DESCRIPTION(
/* description */ (''),
/* implementation_level */ '2;1');

FILE_NAME(
/* name */ 'MTH-1_2-14NPTF-XC-V050.stp',
/* time_stamp */ '2018-04-17T12:11:12+06:00',
/* author */ (''),
/* organization */ (''),
/* preprocessor_version */ 'ST-DEVELOPER v16',
/* originating_system */ 'SIEMENS PLM Software NX 11.0',
/* authorisation */ '');

FILE_SCHEMA (('AUTOMOTIVE_DESIGN { 1 0 10303 214 3 1 1 1 }'));
ENDSEC;

DATA;
#10=CONSTRUCTIVE_GEOMETRY_REPRESENTATION_RELATIONSHIP(
'supplemental geometry','',#32,#11);
#11=CONSTRUCTIVE_GEOMETRY_REPRESENTATION('supplemental geometry',(#206,
#207,#208),#333);
#12=PROPERTY_DEFINITION_REPRESENTATION(#16,#14);
#13=PROPERTY_DEFINITION_REPRESENTATION(#17,#15);
#14=REPRESENTATION('',(#18),#333);
#15=REPRESENTATION('',(#19),#333);
#16=PROPERTY_DEFINITION('pmi validation property','',#23);
#17=PROPERTY_DEFINITION('pmi validation property','',#23);
#18=VALUE_REPRESENTATION_ITEM('number of annotations',COUNT_MEASURE(0.));
#19=VALUE_REPRESENTATION_ITEM('number of views',COUNT_MEASURE(0.));
#20=SHAPE_REPRESENTATION_RELATIONSHIP('None',
'relationship between MTH-1_2-14NPTF-XC-V050-None and MTH-1_2-14NPTF-X
C-V050-None',#32,#21);
#21=ADVANCED_BREP_SHAPE_REPRESENTATION('MTH-1_2-14NPTF-XC-V050-None',(#48,
#49,#50),#333);
#22=SHAPE_DEFINITION_REPRESENTATION(#23,#32);
#23=PRODUCT_DEFINITION_SHAPE('','',#24);
#24=PRODUCT_DEFINITION(' ','',#26,#25);
#25=PRODUCT_DEFINITION_CONTEXT('part definition',#31,'design');
#26=PRODUCT_DEFINITION_FORMATION_WITH_SPECIFIED_SOURCE(' ',' ',#28,
 .NOT_KNOWN.);
#27=PRODUCT_RELATED_PRODUCT_CATEGORY('part','',(#28));
#28=PRODUCT('MTH-1_2-14NPTF-XC-V050','MTH-1_2-14NPTF-XC-V050',' ',(#29));
#29=PRODUCT_CONTEXT(' ',#31,'mechanical');
#30=APPLICATION_PROTOCOL_DEFINITION('international standard',
'automotive_design',2010,#31);
#31=APPLICATION_CONTEXT(
'core data for automotive mechanical design processes');
#32=SHAPE_REPRESENTATION('MTH-1_2-14NPTF-XC-V050-None',(#205),#333);
#33=SURFACE_STYLE_USAGE(.BOTH.,#36);
#34=SURFACE_STYLE_USAGE(.BOTH.,#37);
#35=SURFACE_STYLE_USAGE(.BOTH.,#38);
#36=SURFACE_SIDE_STYLE('',(#39));
#37=SURFACE_SIDE_STYLE('',(#40));
#38=SURFACE_SIDE_STYLE('',(#41));
#39=SURFACE_STYLE_FILL_AREA(#42);
#40=SURFACE_STYLE_FILL_AREA(#43);
#41=SURFACE_STYLE_FILL_AREA(#44);
#42=FILL_AREA_STYLE('',(#45));
#43=FILL_AREA_STYLE('',(#46));
#44=FILL_AREA_STYLE('',(#47));
#45=FILL_AREA_STYLE_COLOUR('',#200);
#46=FILL_AREA_STYLE_COLOUR('',#201);
#47=FILL_AREA_STYLE_COLOUR('',#200);
#48=MANIFOLD_SOLID_BREP('NOCUT',#51);
#49=MANIFOLD_SOLID_BREP('CUT',#52);
#50=MANIFOLD_SOLID_BREP('NOCUT',#53);
#51=CLOSED_SHELL('',(#71,#72,#73,#74,#75,#76));
#52=CLOSED_SHELL('',(#77,#78,#79,#80));
#53=CLOSED_SHELL('',(#81,#82,#83,#84));
#54=FACE_OUTER_BOUND('',#112,.T.);
#55=FACE_OUTER_BOUND('',#113,.T.);
#56=FACE_OUTER_BOUND('',#114,.T.);
#57=FACE_OUTER_BOUND('',#119,.T.);
#58=FACE_OUTER_BOUND('',#120,.T.);
#59=FACE_OUTER_BOUND('',#125,.T.);
#60=PLANE('',#217);
#61=PLANE('',#218);
#62=PLANE('',#219);
#63=PLANE('',#221);
#64=PLANE('',#226);
#65=PLANE('',#228);
#66=PLANE('',#233);
#67=CONICAL_SURFACE('',#214,8.5,81.0693782828379);
#68=CONICAL_SURFACE('',#223,10.4605,16.5000000002387);
#69=CONICAL_SURFACE('',#225,10.70863568,0.691358624185673);
#70=CONICAL_SURFACE('',#230,8.75,45.);
#71=ADVANCED_FACE('',(#88,#89),#85,.T.);
#72=ADVANCED_FACE('',(#90,#91),#67,.T.);
#73=ADVANCED_FACE('',(#92,#93),#86,.T.);
#74=ADVANCED_FACE('',(#94,#95),#60,.T.);
#75=ADVANCED_FACE('',(#54),#61,.T.);
#76=ADVANCED_FACE('',(#55),#62,.T.);
#77=ADVANCED_FACE('',(#56),#63,.T.);
#78=ADVANCED_FACE('',(#96,#97),#68,.T.);
#79=ADVANCED_FACE('',(#98,#99),#69,.T.);
#80=ADVANCED_FACE('',(#57),#64,.T.);
#81=ADVANCED_FACE('',(#58),#65,.T.);
#82=ADVANCED_FACE('',(#100,#101),#70,.T.);
#83=ADVANCED_FACE('',(#102,#103),#87,.T.);
#84=ADVANCED_FACE('',(#59),#66,.F.);
#85=CYLINDRICAL_SURFACE('',#211,9.00000000000001);
#86=CYLINDRICAL_SURFACE('',#216,8.5);
#87=CYLINDRICAL_SURFACE('',#232,9.00000000000001);
#88=FACE_BOUND('',#104,.T.);
#89=FACE_BOUND('',#105,.T.);
#90=FACE_BOUND('',#106,.T.);
#91=FACE_BOUND('',#107,.T.);
#92=FACE_BOUND('',#108,.T.);
#93=FACE_BOUND('',#109,.T.);
#94=FACE_BOUND('',#110,.T.);
#95=FACE_BOUND('',#111,.T.);
#96=FACE_BOUND('',#115,.T.);
#97=FACE_BOUND('',#116,.T.);
#98=FACE_BOUND('',#117,.T.);
#99=FACE_BOUND('',#118,.T.);
#100=FACE_BOUND('',#121,.T.);
#101=FACE_BOUND('',#122,.T.);
#102=FACE_BOUND('',#123,.T.);
#103=FACE_BOUND('',#124,.T.);
#104=EDGE_LOOP('',(#126));
#105=EDGE_LOOP('',(#127));
#106=EDGE_LOOP('',(#128));
#107=EDGE_LOOP('',(#129));
#108=EDGE_LOOP('',(#130));
#109=EDGE_LOOP('',(#131));
#110=EDGE_LOOP('',(#132));
#111=EDGE_LOOP('',(#133));
#112=EDGE_LOOP('',(#134));
#113=EDGE_LOOP('',(#135));
#114=EDGE_LOOP('',(#136));
#115=EDGE_LOOP('',(#137));
#116=EDGE_LOOP('',(#138));
#117=EDGE_LOOP('',(#139));
#118=EDGE_LOOP('',(#140));
#119=EDGE_LOOP('',(#141));
#120=EDGE_LOOP('',(#142));
#121=EDGE_LOOP('',(#143));
#122=EDGE_LOOP('',(#144));
#123=EDGE_LOOP('',(#145));
#124=EDGE_LOOP('',(#146));
#125=EDGE_LOOP('',(#147));
#126=ORIENTED_EDGE('',*,*,#159,.F.);
#127=ORIENTED_EDGE('',*,*,#160,.T.);
#128=ORIENTED_EDGE('',*,*,#161,.F.);
#129=ORIENTED_EDGE('',*,*,#162,.T.);
#130=ORIENTED_EDGE('',*,*,#162,.F.);
#131=ORIENTED_EDGE('',*,*,#163,.T.);
#132=ORIENTED_EDGE('',*,*,#159,.T.);
#133=ORIENTED_EDGE('',*,*,#163,.F.);
#134=ORIENTED_EDGE('',*,*,#161,.T.);
#135=ORIENTED_EDGE('',*,*,#160,.F.);
#136=ORIENTED_EDGE('',*,*,#164,.T.);
#137=ORIENTED_EDGE('',*,*,#164,.F.);
#138=ORIENTED_EDGE('',*,*,#165,.T.);
#139=ORIENTED_EDGE('',*,*,#165,.F.);
#140=ORIENTED_EDGE('',*,*,#166,.T.);
#141=ORIENTED_EDGE('',*,*,#166,.F.);
#142=ORIENTED_EDGE('',*,*,#167,.F.);
#143=ORIENTED_EDGE('',*,*,#167,.T.);
#144=ORIENTED_EDGE('',*,*,#168,.T.);
#145=ORIENTED_EDGE('',*,*,#169,.T.);
#146=ORIENTED_EDGE('',*,*,#168,.F.);
#147=ORIENTED_EDGE('',*,*,#169,.F.);
#148=VERTEX_POINT('',#297);
#149=VERTEX_POINT('',#299);
#150=VERTEX_POINT('',#302);
#151=VERTEX_POINT('',#304);
#152=VERTEX_POINT('',#307);
#153=VERTEX_POINT('',#313);
#154=VERTEX_POINT('',#316);
#155=VERTEX_POINT('',#319);
#156=VERTEX_POINT('',#323);
#157=VERTEX_POINT('',#326);
#158=VERTEX_POINT('',#329);
#159=EDGE_CURVE('',#148,#148,#170,.T.);
#160=EDGE_CURVE('',#149,#149,#171,.T.);
#161=EDGE_CURVE('',#150,#150,#172,.T.);
#162=EDGE_CURVE('',#151,#151,#173,.T.);
#163=EDGE_CURVE('',#152,#152,#174,.T.);
#164=EDGE_CURVE('',#153,#153,#175,.T.);
#165=EDGE_CURVE('',#154,#154,#176,.T.);
#166=EDGE_CURVE('',#155,#155,#177,.T.);
#167=EDGE_CURVE('',#156,#156,#178,.T.);
#168=EDGE_CURVE('',#157,#157,#179,.T.);
#169=EDGE_CURVE('',#158,#158,#180,.T.);
#170=CIRCLE('',#209,9.00000000000001);
#171=CIRCLE('',#210,9.00000000000001);
#172=CIRCLE('',#212,10.70863568);
#173=CIRCLE('',#213,8.5);
#174=CIRCLE('',#215,8.5);
#175=CIRCLE('',#220,8.85);
#176=CIRCLE('',#222,10.4605);
#177=CIRCLE('',#224,10.70863568);
#178=CIRCLE('',#227,7.875);
#179=CIRCLE('',#229,9.00000000000001);
#180=CIRCLE('',#231,9.00000000000001);
#181=PRESENTATION_LAYER_ASSIGNMENT('1','Layer 1',(#206,#207,#208,#50));
#182=PRESENTATION_LAYER_ASSIGNMENT('2','Layer 2',(#48));
#183=PRESENTATION_LAYER_ASSIGNMENT('3','Layer 3',(#49));
#184=STYLED_ITEM('',(#190),#206);
#185=STYLED_ITEM('',(#191),#207);
#186=STYLED_ITEM('',(#192),#208);
#187=STYLED_ITEM('',(#193),#48);
#188=STYLED_ITEM('',(#194),#49);
#189=STYLED_ITEM('',(#195),#50);
#190=PRESENTATION_STYLE_ASSIGNMENT((#196));
#191=PRESENTATION_STYLE_ASSIGNMENT((#197));
#192=PRESENTATION_STYLE_ASSIGNMENT((#198));
#193=PRESENTATION_STYLE_ASSIGNMENT((#33));
#194=PRESENTATION_STYLE_ASSIGNMENT((#34));
#195=PRESENTATION_STYLE_ASSIGNMENT((#35));
#196=CURVE_STYLE('',#202,POSITIVE_LENGTH_MEASURE(0.18),#199);
#197=CURVE_STYLE('',#203,POSITIVE_LENGTH_MEASURE(0.18),#199);
#198=CURVE_STYLE('',#204,POSITIVE_LENGTH_MEASURE(0.18),#199);
#199=COLOUR_RGB('Strong Stone',0.576470588235294,0.54508278019379,0.392156862745098);
#200=COLOUR_RGB('Medium Gray',0.490196078431373,0.490196078431373,0.490196078431373);
#201=COLOUR_RGB('Light Gray',0.8,0.8,0.8);
#202=DRAUGHTING_PRE_DEFINED_CURVE_FONT('continuous');
#203=DRAUGHTING_PRE_DEFINED_CURVE_FONT('continuous');
#204=DRAUGHTING_PRE_DEFINED_CURVE_FONT('continuous');
#205=AXIS2_PLACEMENT_3D('',#292,#234,#235);
#206=AXIS2_PLACEMENT_3D('MCS',#293,#236,#237);
#207=AXIS2_PLACEMENT_3D('PCS',#294,#238,#239);
#208=AXIS2_PLACEMENT_3D('CIP',#295,#240,#241);
#209=AXIS2_PLACEMENT_3D('',#296,#242,#243);
#210=AXIS2_PLACEMENT_3D('',#298,#244,#245);
#211=AXIS2_PLACEMENT_3D('',#300,#246,#247);
#212=AXIS2_PLACEMENT_3D('',#301,#248,#249);
#213=AXIS2_PLACEMENT_3D('',#303,#250,#251);
#214=AXIS2_PLACEMENT_3D('',#305,#252,#253);
#215=AXIS2_PLACEMENT_3D('',#306,#254,#255);
#216=AXIS2_PLACEMENT_3D('',#308,#256,#257);
#217=AXIS2_PLACEMENT_3D('',#309,#258,#259);
#218=AXIS2_PLACEMENT_3D('',#310,#260,#261);
#219=AXIS2_PLACEMENT_3D('',#311,#262,#263);
#220=AXIS2_PLACEMENT_3D('',#312,#264,#265);
#221=AXIS2_PLACEMENT_3D('',#314,#266,#267);
#222=AXIS2_PLACEMENT_3D('',#315,#268,#269);
#223=AXIS2_PLACEMENT_3D('',#317,#270,#271);
#224=AXIS2_PLACEMENT_3D('',#318,#272,#273);
#225=AXIS2_PLACEMENT_3D('',#320,#274,#275);
#226=AXIS2_PLACEMENT_3D('',#321,#276,#277);
#227=AXIS2_PLACEMENT_3D('',#322,#278,#279);
#228=AXIS2_PLACEMENT_3D('',#324,#280,#281);
#229=AXIS2_PLACEMENT_3D('',#325,#282,#283);
#230=AXIS2_PLACEMENT_3D('',#327,#284,#285);
#231=AXIS2_PLACEMENT_3D('',#328,#286,#287);
#232=AXIS2_PLACEMENT_3D('',#330,#288,#289);
#233=AXIS2_PLACEMENT_3D('',#331,#290,#291);
#234=DIRECTION('',(0.,0.,1.));
#235=DIRECTION('',(1.,0.,0.));
#236=DIRECTION('',(0.,0.,1.));
#237=DIRECTION('',(1.,0.,0.));
#238=DIRECTION('',(0.,0.,1.));
#239=DIRECTION('',(1.,0.,0.));
#240=DIRECTION('',(0.,0.,1.));
#241=DIRECTION('',(1.,0.,0.));
#242=DIRECTION('',(0.,0.,-1.));
#243=DIRECTION('',(-1.,0.,0.));
#244=DIRECTION('',(0.,0.,-1.));
#245=DIRECTION('',(1.,0.,0.));
#246=DIRECTION('',(0.,0.,1.));
#247=DIRECTION('',(1.,0.,0.));
#248=DIRECTION('',(0.,0.,-1.));
#249=DIRECTION('',(-1.,0.,0.));
#250=DIRECTION('',(-1.63268091856641E-15,1.63268091856641E-15,-1.));
#251=DIRECTION('',(-1.,0.,1.63268091856641E-15));
#252=DIRECTION('',(-1.63268091856641E-15,1.63268091856641E-15,-1.));
#253=DIRECTION('',(-1.,-1.45076885132904E-33,1.65084366671687E-15));
#254=DIRECTION('',(0.,0.,-1.));
#255=DIRECTION('',(-1.,0.,0.));
#256=DIRECTION('',(0.,0.,-1.));
#257=DIRECTION('',(-1.,0.,0.));
#258=DIRECTION('',(0.,0.,-1.));
#259=DIRECTION('',(-1.,0.,0.));
#260=DIRECTION('',(0.,0.,-1.));
#261=DIRECTION('',(1.,0.,0.));
#262=DIRECTION('',(0.,0.,1.));
#263=DIRECTION('',(1.,0.,0.));
#264=DIRECTION('',(0.,0.,-1.));
#265=DIRECTION('',(-1.,0.,0.));
#266=DIRECTION('',(0.,0.,-1.));
#267=DIRECTION('',(-1.,0.,0.));
#268=DIRECTION('',(0.,0.,-1.));
#269=DIRECTION('',(-1.,0.,0.));
#270=DIRECTION('',(0.,0.,1.));
#271=DIRECTION('',(1.,0.,0.));
#272=DIRECTION('',(0.,0.,-1.));
#273=DIRECTION('',(-1.,0.,0.));
#274=DIRECTION('',(0.,0.,1.));
#275=DIRECTION('',(1.,0.,-1.82797249280506E-15));
#276=DIRECTION('',(0.,0.,1.));
#277=DIRECTION('',(0.,-1.,0.));
#278=DIRECTION('',(0.,6.12323399573676E-17,-1.));
#279=DIRECTION('',(0.,1.,0.));
#280=DIRECTION('',(0.,-6.12323399573676E-17,1.));
#281=DIRECTION('',(0.,1.,6.24500451351651E-17));
#282=DIRECTION('',(-1.23908819712629E-17,-4.95635278850516E-17,1.));
#283=DIRECTION('',(0.,1.,0.));
#284=DIRECTION('',(1.23908819712629E-17,4.95635278850516E-17,-1.));
#285=DIRECTION('',(-2.66353827058334E-36,1.,-2.75148209324698E-17));
#286=DIRECTION('',(0.,0.,1.));
#287=DIRECTION('',(1.,0.,0.));
#288=DIRECTION('',(0.,0.,1.));
#289=DIRECTION('',(1.,0.,0.));
#290=DIRECTION('',(0.,0.,1.));
#291=DIRECTION('',(1.,0.,0.));
#292=CARTESIAN_POINT('',(0.,0.,0.));
#293=CARTESIAN_POINT('',(0.,0.,0.));
#294=CARTESIAN_POINT('',(0.,0.,47.));
#295=CARTESIAN_POINT('',(2.46519032881566E-31,6.57807142090405E-15,-78.));
#296=CARTESIAN_POINT('',(1.47911419728939E-31,3.51108031537706E-15,-37.5));
#297=CARTESIAN_POINT('',(-9.00000000000001,3.51108031537706E-15,-37.5));
#298=CARTESIAN_POINT('',(1.47911419728939E-31,3.51108031537706E-15,0.));
#299=CARTESIAN_POINT('',(9.00000000000001,3.51108031537706E-15,0.));
#300=CARTESIAN_POINT('',(1.47911419728939E-31,3.51108031537706E-15,-37.5));
#301=CARTESIAN_POINT('',(1.97215226305253E-31,5.26662047306559E-15,-52.));
#302=CARTESIAN_POINT('',(-10.70863568,5.26662047306559E-15,-52.));
#303=CARTESIAN_POINT('',(-1.11317844465608E-29,5.2666204730656E-15,-51.65292743));
#304=CARTESIAN_POINT('',(-8.5,5.2666204730656E-15,-51.65292743));
#305=CARTESIAN_POINT('',(-1.11317844465608E-29,7.02216063075413E-15,-51.65292743));
#306=CARTESIAN_POINT('',(-3.21964677141295E-15,8.71525074330747E-15,-37.5));
#307=CARTESIAN_POINT('',(-8.5,8.71525074330747E-15,-37.5));
#308=CARTESIAN_POINT('',(1.97215226305253E-31,3.51108031537706E-15,-37.5));
#309=CARTESIAN_POINT('',(9.,-9.,-37.5));
#310=CARTESIAN_POINT('',(-10.70863568,10.70863568,-52.));
#311=CARTESIAN_POINT('',(0.,0.,0.));
#312=CARTESIAN_POINT('',(2.46519032881566E-31,6.57807142090405E-15,-78.));
#313=CARTESIAN_POINT('',(-8.85,6.57807142090405E-15,-78.));
#314=CARTESIAN_POINT('',(8.85,-8.84999999999999,-78.));
#315=CARTESIAN_POINT('',(1.97215226305253E-31,5.26662047306559E-15,-72.563043118));
#316=CARTESIAN_POINT('',(-10.4605,5.26662047306559E-15,-72.563043118));
#317=CARTESIAN_POINT('',(1.97215226305253E-31,0.,-72.563043118));
#318=CARTESIAN_POINT('',(1.97215226305253E-31,5.26662047306559E-15,-52.));
#319=CARTESIAN_POINT('',(-10.70863568,5.26662047306559E-15,-52.));
#320=CARTESIAN_POINT('',(1.97215226305253E-31,5.26662047306559E-15,-52.));
#321=CARTESIAN_POINT('',(-10.70863568,10.70863568,-52.));
#322=CARTESIAN_POINT('',(0.,0.,47.));
#323=CARTESIAN_POINT('',(0.,7.875,47.));
#324=CARTESIAN_POINT('',(7.875,-7.875,47.));
#325=CARTESIAN_POINT('',(3.09772049281577E-18,-1.74314927571727E-15,45.875));
#326=CARTESIAN_POINT('',(3.09772049281577E-18,9.,45.875));
#327=CARTESIAN_POINT('',(2.68684423045094E-33,-1.75554015768853E-15,46.125));
#328=CARTESIAN_POINT('',(1.47911419728939E-31,3.51108031537706E-15,0.));
#329=CARTESIAN_POINT('',(9.00000000000001,3.51108031537706E-15,0.));
#330=CARTESIAN_POINT('',(1.47911419728939E-31,3.51108031537706E-15,-37.5));
#331=CARTESIAN_POINT('',(0.,0.,0.));
#332=MECHANICAL_DESIGN_GEOMETRIC_PRESENTATION_REPRESENTATION('',(#184,#185,
#186,#187,#188,#189),#333);
#333=(
GEOMETRIC_REPRESENTATION_CONTEXT(3)
GLOBAL_UNCERTAINTY_ASSIGNED_CONTEXT((#334))
GLOBAL_UNIT_ASSIGNED_CONTEXT((#340,#336,#335))
REPRESENTATION_CONTEXT('MTH-1_2-14NPTF-XC-V050',
'TOP_LEVEL_ASSEMBLY_PART')
);
#334=UNCERTAINTY_MEASURE_WITH_UNIT(LENGTH_MEASURE(2.E-5),#340,
'DISTANCE_ACCURACY_VALUE','Maximum Tolerance applied to model');
#335=(
NAMED_UNIT(*)
SI_UNIT($,.STERADIAN.)
SOLID_ANGLE_UNIT()
);
#336=(
CONVERSION_BASED_UNIT('DEGREE',#338)
NAMED_UNIT(#337)
PLANE_ANGLE_UNIT()
);
#337=DIMENSIONAL_EXPONENTS(0.,0.,0.,0.,0.,0.,0.);
#338=PLANE_ANGLE_MEASURE_WITH_UNIT(PLANE_ANGLE_MEASURE(0.0174532925),#339);
#339=(
NAMED_UNIT(*)
PLANE_ANGLE_UNIT()
SI_UNIT($,.RADIAN.)
);
#340=(
LENGTH_UNIT()
NAMED_UNIT(*)
SI_UNIT(.MILLI.,.METRE.)
);
ENDSEC;
END-ISO-10303-21;
