ISO-10303-21;
HEADER;
/* Generated by software containing ST-Developer
 * from STEP Tools, Inc. (www.steptools.com) 
 */
/* OPTION: using custom schema-name function */

FILE_DESCRIPTION(
/* description */ (''),
/* implementation_level */ '2;1');

FILE_NAME(
/* name */ 'DN__150612.stp',
/* time_stamp */ '2018-04-05T16:18:12+06:00',
/* author */ (''),
/* organization */ (''),
/* preprocessor_version */ 'ST-DEVELOPER v16',
/* originating_system */ 'SIEMENS PLM Software NX 11.0',
/* authorisation */ '');

FILE_SCHEMA (('AUTOMOTIVE_DESIGN { 1 0 10303 214 3 1 1 1 }'));
ENDSEC;

DATA;
#10=CONSTRUCTIVE_GEOMETRY_REPRESENTATION_RELATIONSHIP(
'supplemental geometry','',#32,#11);
#11=CONSTRUCTIVE_GEOMETRY_REPRESENTATION('supplemental geometry',(#298,
#299),#496);
#12=PROPERTY_DEFINITION_REPRESENTATION(#16,#14);
#13=PROPERTY_DEFINITION_REPRESENTATION(#17,#15);
#14=REPRESENTATION('',(#18),#496);
#15=REPRESENTATION('',(#19),#496);
#16=PROPERTY_DEFINITION('pmi validation property','',#23);
#17=PROPERTY_DEFINITION('pmi validation property','',#23);
#18=VALUE_REPRESENTATION_ITEM('number of annotations',COUNT_MEASURE(0.));
#19=VALUE_REPRESENTATION_ITEM('number of views',COUNT_MEASURE(0.));
#20=SHAPE_REPRESENTATION_RELATIONSHIP('None',
'relationship between DN__150612-None and DN__150612-None',#32,#21);
#21=ADVANCED_BREP_SHAPE_REPRESENTATION('DN__150612-None',(#38),#496);
#22=SHAPE_DEFINITION_REPRESENTATION(#23,#32);
#23=PRODUCT_DEFINITION_SHAPE('','',#24);
#24=PRODUCT_DEFINITION(' ','',#26,#25);
#25=PRODUCT_DEFINITION_CONTEXT('part definition',#31,'design');
#26=PRODUCT_DEFINITION_FORMATION_WITH_SPECIFIED_SOURCE(' ',' ',#28,
 .NOT_KNOWN.);
#27=PRODUCT_RELATED_PRODUCT_CATEGORY('part','',(#28));
#28=PRODUCT('DN__150612','DN__150612',' ',(#29));
#29=PRODUCT_CONTEXT(' ',#31,'mechanical');
#30=APPLICATION_PROTOCOL_DEFINITION('international standard',
'automotive_design',2010,#31);
#31=APPLICATION_CONTEXT(
'core data for automotive mechanical design processes');
#32=SHAPE_REPRESENTATION('DN__150612-None',(#297),#496);
#33=SURFACE_STYLE_USAGE(.BOTH.,#34);
#34=SURFACE_SIDE_STYLE('',(#35));
#35=SURFACE_STYLE_FILL_AREA(#36);
#36=FILL_AREA_STYLE('',(#37));
#37=FILL_AREA_STYLE_COLOUR('',#294);
#38=MANIFOLD_SOLID_BREP('CUT',#39);
#39=CLOSED_SHELL('',(#58,#59,#60,#61,#62,#63,#64,#65,#66,#67,#68,#69,#70,
#71));
#40=CYLINDRICAL_SURFACE('',#303,1.20000004768369);
#41=CYLINDRICAL_SURFACE('',#307,1.20000004768372);
#42=CYLINDRICAL_SURFACE('',#312,1.20000004768369);
#43=CYLINDRICAL_SURFACE('',#316,1.20000004768372);
#44=CYLINDRICAL_SURFACE('',#324,1.2);
#45=CYLINDRICAL_SURFACE('',#325,1.2);
#46=CIRCLE('',#301,1.20000004768369);
#47=CIRCLE('',#302,1.20000004768369);
#48=CIRCLE('',#305,1.20000004768372);
#49=CIRCLE('',#306,1.20000004768372);
#50=CIRCLE('',#310,1.20000004768369);
#51=CIRCLE('',#311,1.20000004768369);
#52=CIRCLE('',#314,1.20000004768372);
#53=CIRCLE('',#315,1.20000004768372);
#54=CIRCLE('',#318,1.2);
#55=CIRCLE('',#319,1.2);
#56=CIRCLE('',#321,1.2);
#57=CIRCLE('',#322,1.2);
#58=ADVANCED_FACE('',(#80),#72,.T.);
#59=ADVANCED_FACE('',(#81),#40,.T.);
#60=ADVANCED_FACE('',(#82),#73,.T.);
#61=ADVANCED_FACE('',(#83),#41,.T.);
#62=ADVANCED_FACE('',(#84),#74,.T.);
#63=ADVANCED_FACE('',(#85),#75,.T.);
#64=ADVANCED_FACE('',(#86),#42,.T.);
#65=ADVANCED_FACE('',(#87),#76,.T.);
#66=ADVANCED_FACE('',(#88),#43,.T.);
#67=ADVANCED_FACE('',(#89),#77,.T.);
#68=ADVANCED_FACE('',(#90),#78,.F.);
#69=ADVANCED_FACE('',(#91),#79,.T.);
#70=ADVANCED_FACE('',(#92),#44,.T.);
#71=ADVANCED_FACE('',(#93),#45,.T.);
#72=PLANE('',#300);
#73=PLANE('',#304);
#74=PLANE('',#308);
#75=PLANE('',#309);
#76=PLANE('',#313);
#77=PLANE('',#317);
#78=PLANE('',#320);
#79=PLANE('',#323);
#80=FACE_OUTER_BOUND('',#94,.T.);
#81=FACE_OUTER_BOUND('',#95,.T.);
#82=FACE_OUTER_BOUND('',#96,.T.);
#83=FACE_OUTER_BOUND('',#97,.T.);
#84=FACE_OUTER_BOUND('',#98,.T.);
#85=FACE_OUTER_BOUND('',#99,.T.);
#86=FACE_OUTER_BOUND('',#100,.T.);
#87=FACE_OUTER_BOUND('',#101,.T.);
#88=FACE_OUTER_BOUND('',#102,.T.);
#89=FACE_OUTER_BOUND('',#103,.T.);
#90=FACE_OUTER_BOUND('',#104,.T.);
#91=FACE_OUTER_BOUND('',#105,.T.);
#92=FACE_OUTER_BOUND('',#106,.T.);
#93=FACE_OUTER_BOUND('',#107,.T.);
#94=EDGE_LOOP('',(#113,#114,#115,#116));
#95=EDGE_LOOP('',(#117,#118,#119,#120));
#96=EDGE_LOOP('',(#121,#122,#123,#124));
#97=EDGE_LOOP('',(#125,#126,#127,#128));
#98=EDGE_LOOP('',(#129,#130,#131,#132));
#99=EDGE_LOOP('',(#133,#134,#135,#136));
#100=EDGE_LOOP('',(#137,#138,#139,#140));
#101=EDGE_LOOP('',(#141,#142,#143,#144));
#102=EDGE_LOOP('',(#145,#146,#147,#148));
#103=EDGE_LOOP('',(#149,#150,#151,#152));
#104=EDGE_LOOP('',(#153,#154,#155,#156,#157,#158,#159,#160,#161,#162,#163,
#164));
#105=EDGE_LOOP('',(#165,#166,#167,#168,#169,#170,#171,#172,#173,#174,#175,
#176));
#106=EDGE_LOOP('',(#177,#178,#179,#180));
#107=EDGE_LOOP('',(#181,#182,#183,#184));
#108=B_SPLINE_CURVE_WITH_KNOTS('',3,(#413,#414,#415,#416),.UNSPECIFIED.,
 .F.,.F.,(4,4),(0.,1.),.UNSPECIFIED.);
#109=B_SPLINE_CURVE_WITH_KNOTS('',3,(#422,#423,#424,#425),.UNSPECIFIED.,
 .F.,.F.,(4,4),(0.,1.),.UNSPECIFIED.);
#110=B_SPLINE_CURVE_WITH_KNOTS('',3,(#431,#432,#433,#434),.UNSPECIFIED.,
 .F.,.F.,(4,4),(0.,1.),.UNSPECIFIED.);
#111=B_SPLINE_CURVE_WITH_KNOTS('',3,(#461,#462,#463,#464),.UNSPECIFIED.,
 .F.,.F.,(4,4),(0.,1.),.UNSPECIFIED.);
#112=B_SPLINE_CURVE_WITH_KNOTS('',3,(#470,#471,#472,#473),.UNSPECIFIED.,
 .F.,.F.,(4,4),(0.,1.),.UNSPECIFIED.);
#113=ORIENTED_EDGE('',*,*,#209,.F.);
#114=ORIENTED_EDGE('',*,*,#210,.T.);
#115=ORIENTED_EDGE('',*,*,#211,.T.);
#116=ORIENTED_EDGE('',*,*,#212,.T.);
#117=ORIENTED_EDGE('',*,*,#213,.F.);
#118=ORIENTED_EDGE('',*,*,#212,.F.);
#119=ORIENTED_EDGE('',*,*,#214,.T.);
#120=ORIENTED_EDGE('',*,*,#215,.T.);
#121=ORIENTED_EDGE('',*,*,#216,.F.);
#122=ORIENTED_EDGE('',*,*,#215,.F.);
#123=ORIENTED_EDGE('',*,*,#217,.T.);
#124=ORIENTED_EDGE('',*,*,#218,.T.);
#125=ORIENTED_EDGE('',*,*,#219,.F.);
#126=ORIENTED_EDGE('',*,*,#218,.F.);
#127=ORIENTED_EDGE('',*,*,#220,.T.);
#128=ORIENTED_EDGE('',*,*,#221,.T.);
#129=ORIENTED_EDGE('',*,*,#222,.T.);
#130=ORIENTED_EDGE('',*,*,#223,.T.);
#131=ORIENTED_EDGE('',*,*,#224,.F.);
#132=ORIENTED_EDGE('',*,*,#221,.F.);
#133=ORIENTED_EDGE('',*,*,#225,.F.);
#134=ORIENTED_EDGE('',*,*,#226,.T.);
#135=ORIENTED_EDGE('',*,*,#227,.T.);
#136=ORIENTED_EDGE('',*,*,#228,.T.);
#137=ORIENTED_EDGE('',*,*,#229,.F.);
#138=ORIENTED_EDGE('',*,*,#228,.F.);
#139=ORIENTED_EDGE('',*,*,#230,.T.);
#140=ORIENTED_EDGE('',*,*,#231,.T.);
#141=ORIENTED_EDGE('',*,*,#232,.F.);
#142=ORIENTED_EDGE('',*,*,#231,.F.);
#143=ORIENTED_EDGE('',*,*,#233,.T.);
#144=ORIENTED_EDGE('',*,*,#234,.T.);
#145=ORIENTED_EDGE('',*,*,#235,.F.);
#146=ORIENTED_EDGE('',*,*,#234,.F.);
#147=ORIENTED_EDGE('',*,*,#236,.T.);
#148=ORIENTED_EDGE('',*,*,#237,.T.);
#149=ORIENTED_EDGE('',*,*,#238,.T.);
#150=ORIENTED_EDGE('',*,*,#239,.T.);
#151=ORIENTED_EDGE('',*,*,#240,.F.);
#152=ORIENTED_EDGE('',*,*,#237,.F.);
#153=ORIENTED_EDGE('',*,*,#227,.F.);
#154=ORIENTED_EDGE('',*,*,#241,.T.);
#155=ORIENTED_EDGE('',*,*,#222,.F.);
#156=ORIENTED_EDGE('',*,*,#220,.F.);
#157=ORIENTED_EDGE('',*,*,#217,.F.);
#158=ORIENTED_EDGE('',*,*,#214,.F.);
#159=ORIENTED_EDGE('',*,*,#211,.F.);
#160=ORIENTED_EDGE('',*,*,#242,.T.);
#161=ORIENTED_EDGE('',*,*,#238,.F.);
#162=ORIENTED_EDGE('',*,*,#236,.F.);
#163=ORIENTED_EDGE('',*,*,#233,.F.);
#164=ORIENTED_EDGE('',*,*,#230,.F.);
#165=ORIENTED_EDGE('',*,*,#224,.T.);
#166=ORIENTED_EDGE('',*,*,#243,.T.);
#167=ORIENTED_EDGE('',*,*,#225,.T.);
#168=ORIENTED_EDGE('',*,*,#229,.T.);
#169=ORIENTED_EDGE('',*,*,#232,.T.);
#170=ORIENTED_EDGE('',*,*,#235,.T.);
#171=ORIENTED_EDGE('',*,*,#240,.T.);
#172=ORIENTED_EDGE('',*,*,#244,.T.);
#173=ORIENTED_EDGE('',*,*,#209,.T.);
#174=ORIENTED_EDGE('',*,*,#213,.T.);
#175=ORIENTED_EDGE('',*,*,#216,.T.);
#176=ORIENTED_EDGE('',*,*,#219,.T.);
#177=ORIENTED_EDGE('',*,*,#241,.F.);
#178=ORIENTED_EDGE('',*,*,#226,.F.);
#179=ORIENTED_EDGE('',*,*,#243,.F.);
#180=ORIENTED_EDGE('',*,*,#223,.F.);
#181=ORIENTED_EDGE('',*,*,#242,.F.);
#182=ORIENTED_EDGE('',*,*,#210,.F.);
#183=ORIENTED_EDGE('',*,*,#244,.F.);
#184=ORIENTED_EDGE('',*,*,#239,.F.);
#185=VERTEX_POINT('',#407);
#186=VERTEX_POINT('',#408);
#187=VERTEX_POINT('',#410);
#188=VERTEX_POINT('',#412);
#189=VERTEX_POINT('',#419);
#190=VERTEX_POINT('',#421);
#191=VERTEX_POINT('',#428);
#192=VERTEX_POINT('',#430);
#193=VERTEX_POINT('',#437);
#194=VERTEX_POINT('',#439);
#195=VERTEX_POINT('',#443);
#196=VERTEX_POINT('',#445);
#197=VERTEX_POINT('',#449);
#198=VERTEX_POINT('',#450);
#199=VERTEX_POINT('',#452);
#200=VERTEX_POINT('',#454);
#201=VERTEX_POINT('',#458);
#202=VERTEX_POINT('',#460);
#203=VERTEX_POINT('',#467);
#204=VERTEX_POINT('',#469);
#205=VERTEX_POINT('',#476);
#206=VERTEX_POINT('',#478);
#207=VERTEX_POINT('',#482);
#208=VERTEX_POINT('',#484);
#209=EDGE_CURVE('',#185,#186,#245,.T.);
#210=EDGE_CURVE('',#185,#187,#246,.T.);
#211=EDGE_CURVE('',#187,#188,#247,.T.);
#212=EDGE_CURVE('',#188,#186,#108,.T.);
#213=EDGE_CURVE('',#186,#189,#46,.T.);
#214=EDGE_CURVE('',#188,#190,#47,.T.);
#215=EDGE_CURVE('',#190,#189,#109,.T.);
#216=EDGE_CURVE('',#189,#191,#248,.T.);
#217=EDGE_CURVE('',#190,#192,#249,.T.);
#218=EDGE_CURVE('',#192,#191,#110,.T.);
#219=EDGE_CURVE('',#191,#193,#48,.T.);
#220=EDGE_CURVE('',#192,#194,#49,.T.);
#221=EDGE_CURVE('',#194,#193,#250,.T.);
#222=EDGE_CURVE('',#194,#195,#251,.T.);
#223=EDGE_CURVE('',#195,#196,#252,.T.);
#224=EDGE_CURVE('',#193,#196,#253,.T.);
#225=EDGE_CURVE('',#197,#198,#254,.T.);
#226=EDGE_CURVE('',#197,#199,#255,.T.);
#227=EDGE_CURVE('',#199,#200,#256,.T.);
#228=EDGE_CURVE('',#200,#198,#257,.T.);
#229=EDGE_CURVE('',#198,#201,#50,.T.);
#230=EDGE_CURVE('',#200,#202,#51,.T.);
#231=EDGE_CURVE('',#202,#201,#111,.T.);
#232=EDGE_CURVE('',#201,#203,#258,.T.);
#233=EDGE_CURVE('',#202,#204,#259,.T.);
#234=EDGE_CURVE('',#204,#203,#112,.T.);
#235=EDGE_CURVE('',#203,#205,#52,.T.);
#236=EDGE_CURVE('',#204,#206,#53,.T.);
#237=EDGE_CURVE('',#206,#205,#260,.T.);
#238=EDGE_CURVE('',#206,#207,#261,.T.);
#239=EDGE_CURVE('',#207,#208,#262,.T.);
#240=EDGE_CURVE('',#205,#208,#263,.T.);
#241=EDGE_CURVE('',#199,#195,#54,.T.);
#242=EDGE_CURVE('',#187,#207,#55,.T.);
#243=EDGE_CURVE('',#196,#197,#56,.T.);
#244=EDGE_CURVE('',#208,#185,#57,.T.);
#245=LINE('',#406,#264);
#246=LINE('',#409,#265);
#247=LINE('',#411,#266);
#248=LINE('',#427,#267);
#249=LINE('',#429,#268);
#250=LINE('',#440,#269);
#251=LINE('',#442,#270);
#252=LINE('',#444,#271);
#253=LINE('',#446,#272);
#254=LINE('',#448,#273);
#255=LINE('',#451,#274);
#256=LINE('',#453,#275);
#257=LINE('',#455,#276);
#258=LINE('',#466,#277);
#259=LINE('',#468,#278);
#260=LINE('',#479,#279);
#261=LINE('',#481,#280);
#262=LINE('',#483,#281);
#263=LINE('',#485,#282);
#264=VECTOR('',#332,1.);
#265=VECTOR('',#333,1.);
#266=VECTOR('',#334,1.);
#267=VECTOR('',#343,1.);
#268=VECTOR('',#344,1.);
#269=VECTOR('',#351,1.);
#270=VECTOR('',#354,1.);
#271=VECTOR('',#355,1.);
#272=VECTOR('',#356,1.);
#273=VECTOR('',#359,1.);
#274=VECTOR('',#360,1.);
#275=VECTOR('',#361,1.);
#276=VECTOR('',#362,1.);
#277=VECTOR('',#371,1.);
#278=VECTOR('',#372,1.);
#279=VECTOR('',#379,1.);
#280=VECTOR('',#382,1.);
#281=VECTOR('',#383,1.);
#282=VECTOR('',#384,1.);
#283=PRESENTATION_LAYER_ASSIGNMENT('1','Layer 1',(#298,#299));
#284=PRESENTATION_LAYER_ASSIGNMENT('3','Layer 3',(#38));
#285=STYLED_ITEM('',(#288),#298);
#286=STYLED_ITEM('',(#289),#299);
#287=STYLED_ITEM('',(#290),#38);
#288=PRESENTATION_STYLE_ASSIGNMENT((#291));
#289=PRESENTATION_STYLE_ASSIGNMENT((#292));
#290=PRESENTATION_STYLE_ASSIGNMENT((#33));
#291=CURVE_STYLE('',#295,POSITIVE_LENGTH_MEASURE(0.18),#293);
#292=CURVE_STYLE('',#296,POSITIVE_LENGTH_MEASURE(0.18),#293);
#293=COLOUR_RGB('Strong Stone',0.576470588235294,0.54508278019379,0.392156862745098);
#294=COLOUR_RGB('Light Gray',0.8,0.8,0.8);
#295=DRAUGHTING_PRE_DEFINED_CURVE_FONT('continuous');
#296=DRAUGHTING_PRE_DEFINED_CURVE_FONT('continuous');
#297=AXIS2_PLACEMENT_3D('',#403,#326,#327);
#298=AXIS2_PLACEMENT_3D('MCS',#404,#328,#329);
#299=AXIS2_PLACEMENT_3D('PCS',#405,#330,#331);
#300=AXIS2_PLACEMENT_3D('',#417,#335,#336);
#301=AXIS2_PLACEMENT_3D('',#418,#337,#338);
#302=AXIS2_PLACEMENT_3D('',#420,#339,#340);
#303=AXIS2_PLACEMENT_3D('',#426,#341,#342);
#304=AXIS2_PLACEMENT_3D('',#435,#345,#346);
#305=AXIS2_PLACEMENT_3D('',#436,#347,#348);
#306=AXIS2_PLACEMENT_3D('',#438,#349,#350);
#307=AXIS2_PLACEMENT_3D('',#441,#352,#353);
#308=AXIS2_PLACEMENT_3D('',#447,#357,#358);
#309=AXIS2_PLACEMENT_3D('',#456,#363,#364);
#310=AXIS2_PLACEMENT_3D('',#457,#365,#366);
#311=AXIS2_PLACEMENT_3D('',#459,#367,#368);
#312=AXIS2_PLACEMENT_3D('',#465,#369,#370);
#313=AXIS2_PLACEMENT_3D('',#474,#373,#374);
#314=AXIS2_PLACEMENT_3D('',#475,#375,#376);
#315=AXIS2_PLACEMENT_3D('',#477,#377,#378);
#316=AXIS2_PLACEMENT_3D('',#480,#380,#381);
#317=AXIS2_PLACEMENT_3D('',#486,#385,#386);
#318=AXIS2_PLACEMENT_3D('',#487,#387,#388);
#319=AXIS2_PLACEMENT_3D('',#488,#389,#390);
#320=AXIS2_PLACEMENT_3D('',#489,#391,#392);
#321=AXIS2_PLACEMENT_3D('',#490,#393,#394);
#322=AXIS2_PLACEMENT_3D('',#491,#395,#396);
#323=AXIS2_PLACEMENT_3D('',#492,#397,#398);
#324=AXIS2_PLACEMENT_3D('',#493,#399,#400);
#325=AXIS2_PLACEMENT_3D('',#494,#401,#402);
#326=DIRECTION('',(0.,0.,1.));
#327=DIRECTION('',(1.,0.,0.));
#328=DIRECTION('',(0.,0.,1.));
#329=DIRECTION('',(1.,0.,0.));
#330=DIRECTION('',(0.,0.,1.));
#331=DIRECTION('',(1.,0.,0.));
#332=DIRECTION('',(-0.573577139767545,-0.819151551751007,0.));
#333=DIRECTION('',(0.,0.,1.));
#334=DIRECTION('',(-0.573577139767545,-0.819151551751007,0.));
#335=DIRECTION('',(0.819151551751007,-0.573577139767545,0.));
#336=DIRECTION('',(0.573577139767545,0.819151551751007,0.));
#337=DIRECTION('',(0.,0.,-1.));
#338=DIRECTION('',(1.,0.,0.));
#339=DIRECTION('',(0.,0.,-1.));
#340=DIRECTION('',(1.,0.,0.));
#341=DIRECTION('',(0.,0.,-1.));
#342=DIRECTION('',(-1.,0.,0.));
#343=DIRECTION('',(-0.887009197306413,-0.461751755701949,0.));
#344=DIRECTION('',(-0.887009197306413,-0.461751755701949,0.));
#345=DIRECTION('',(0.461751755701949,-0.887009197306413,0.));
#346=DIRECTION('',(0.887009197306413,0.461751755701949,0.));
#347=DIRECTION('',(0.,0.,-1.));
#348=DIRECTION('',(1.,0.,0.));
#349=DIRECTION('',(0.,0.,-1.));
#350=DIRECTION('',(1.,0.,0.));
#351=DIRECTION('',(0.,0.,-1.));
#352=DIRECTION('',(0.,0.,-1.));
#353=DIRECTION('',(-1.,0.,0.));
#354=DIRECTION('',(-1.,0.,0.));
#355=DIRECTION('',(0.,0.,-1.));
#356=DIRECTION('',(-1.,0.,0.));
#357=DIRECTION('',(0.,-1.,0.));
#358=DIRECTION('',(0.,0.,-1.));
#359=DIRECTION('',(0.573576553565852,0.819151962214288,0.));
#360=DIRECTION('',(0.,0.,1.));
#361=DIRECTION('',(0.573576553565852,0.819151962214288,0.));
#362=DIRECTION('',(0.,0.,-1.));
#363=DIRECTION('',(-0.819151962214288,0.573576553565853,0.));
#364=DIRECTION('',(-0.573576553565853,-0.819151962214288,0.));
#365=DIRECTION('',(0.,0.,-1.));
#366=DIRECTION('',(1.,0.,0.));
#367=DIRECTION('',(0.,0.,-1.));
#368=DIRECTION('',(1.,0.,0.));
#369=DIRECTION('',(0.,0.,-1.));
#370=DIRECTION('',(-1.,0.,0.));
#371=DIRECTION('',(0.887007957484919,0.461754137348472,0.));
#372=DIRECTION('',(0.887007957484919,0.461754137348472,0.));
#373=DIRECTION('',(-0.461754137348472,0.887007957484919,0.));
#374=DIRECTION('',(-0.887007957484919,-0.461754137348472,0.));
#375=DIRECTION('',(0.,0.,-1.));
#376=DIRECTION('',(1.,0.,0.));
#377=DIRECTION('',(0.,0.,-1.));
#378=DIRECTION('',(1.,0.,0.));
#379=DIRECTION('',(0.,0.,-1.));
#380=DIRECTION('',(0.,0.,-1.));
#381=DIRECTION('',(-1.,0.,0.));
#382=DIRECTION('',(1.,0.,0.));
#383=DIRECTION('',(0.,0.,-1.));
#384=DIRECTION('',(1.,0.,0.));
#385=DIRECTION('',(0.,1.,0.));
#386=DIRECTION('',(0.,0.,1.));
#387=DIRECTION('',(0.,0.,1.));
#388=DIRECTION('',(-1.,0.,0.));
#389=DIRECTION('',(0.,0.,1.));
#390=DIRECTION('',(-1.,0.,0.));
#391=DIRECTION('',(0.,0.,-1.));
#392=DIRECTION('',(-1.,0.,0.));
#393=DIRECTION('',(0.,0.,-1.));
#394=DIRECTION('',(-1.,0.,0.));
#395=DIRECTION('',(0.,0.,-1.));
#396=DIRECTION('',(-1.,0.,0.));
#397=DIRECTION('',(0.,0.,-1.));
#398=DIRECTION('',(-1.,0.,0.));
#399=DIRECTION('',(0.,0.,-1.));
#400=DIRECTION('',(-1.,0.,0.));
#401=DIRECTION('',(0.,0.,-1.));
#402=DIRECTION('',(-1.,0.,0.));
#403=CARTESIAN_POINT('',(0.,0.,0.));
#404=CARTESIAN_POINT('',(0.,0.,0.));
#405=CARTESIAN_POINT('',(-12.1982474078385,-6.35000383853912,0.));
#406=CARTESIAN_POINT('',(10.9896470463392,4.62394177913666,-6.35));
#407=CARTESIAN_POINT('',(10.8760496436189,4.46170817137656,-6.35));
#408=CARTESIAN_POINT('',(4.47880370093612,-4.67449638911377,-6.35));
#409=CARTESIAN_POINT('',(10.8760496436189,4.46170817137656,0.));
#410=CARTESIAN_POINT('',(10.8760496436189,4.46170817137656,0.));
#411=CARTESIAN_POINT('',(10.9896470463392,4.62394177913666,0.));
#412=CARTESIAN_POINT('',(4.47880370093612,-4.67449638911377,0.));
#413=CARTESIAN_POINT('',(4.47880031025831,-4.67449401493127,-4.33680868994202E-16));
#414=CARTESIAN_POINT('',(4.47880031025831,-4.67449401493127,-2.11666666666667));
#415=CARTESIAN_POINT('',(4.47880031025831,-4.67449401493127,-4.23333333333333));
#416=CARTESIAN_POINT('',(4.47880031025831,-4.67449401493127,-6.35));
#417=CARTESIAN_POINT('',(10.9896470463392,4.62394177913666,0.));
#418=CARTESIAN_POINT('',(3.49582685590955,-3.98620378971098,-6.35));
#419=CARTESIAN_POINT('',(4.0499224750896,-5.05061825750365,-6.35));
#420=CARTESIAN_POINT('',(3.49582685590955,-3.98620378971098,0.));
#421=CARTESIAN_POINT('',(4.04992223716849,-5.05061780045857,0.));
#422=CARTESIAN_POINT('',(4.0499224750896,-5.05061825750365,4.33680868994202E-16));
#423=CARTESIAN_POINT('',(4.0499224750896,-5.05061825750365,-2.11666666666667));
#424=CARTESIAN_POINT('',(4.0499224750896,-5.05061825750365,-4.23333333333333));
#425=CARTESIAN_POINT('',(4.0499224750896,-5.05061825750365,-6.35));
#426=CARTESIAN_POINT('',(3.49582685590955,-3.98620378971098,0.));
#427=CARTESIAN_POINT('',(4.04991926313614,-5.05061876773832,-6.35));
#428=CARTESIAN_POINT('',(1.81430503462802,-6.21441593942568,-6.35));
#429=CARTESIAN_POINT('',(4.04991926313614,-5.05061876773832,0.));
#430=CARTESIAN_POINT('',(1.81430364585988,-6.21441327164998,0.));
#431=CARTESIAN_POINT('',(1.81430503462802,-6.21441593942568,4.33680868994202E-16));
#432=CARTESIAN_POINT('',(1.81430503462802,-6.21441593942568,-2.11666666666667));
#433=CARTESIAN_POINT('',(1.81430503462802,-6.21441593942568,-4.23333333333333));
#434=CARTESIAN_POINT('',(1.81430503462802,-6.21441593942568,-6.35));
#435=CARTESIAN_POINT('',(4.04991926313614,-5.05061876773832,0.));
#436=CARTESIAN_POINT('',(1.26020063520638,-5.1499992609024,-6.35));
#437=CARTESIAN_POINT('',(1.26020063520638,-6.34999930858612,-6.35));
#438=CARTESIAN_POINT('',(1.26020063520638,-5.1499992609024,0.));
#439=CARTESIAN_POINT('',(1.26020063520638,-6.34999930858612,0.));
#440=CARTESIAN_POINT('',(1.26020063520638,-6.34999930858612,0.));
#441=CARTESIAN_POINT('',(1.26020063520638,-5.1499992609024,0.));
#442=CARTESIAN_POINT('',(1.26020063520638,-6.35000383853912,0.));
#443=CARTESIAN_POINT('',(-9.89306845279492,-6.35000383853912,0.));
#444=CARTESIAN_POINT('',(-9.89306845279492,-6.35000383853912,0.));
#445=CARTESIAN_POINT('',(-9.89306845279492,-6.35000383853912,-6.35));
#446=CARTESIAN_POINT('',(1.26020063520638,-6.35000383853912,-6.35));
#447=CARTESIAN_POINT('',(1.26020063520638,-6.35000383853912,0.));
#448=CARTESIAN_POINT('',(-10.9896315181138,-4.62392199039457,-6.35));
#449=CARTESIAN_POINT('',(-10.8760508074521,-4.4617119742601,-6.35));
#450=CARTESIAN_POINT('',(-4.47879777787941,4.67450940608979,-6.35));
#451=CARTESIAN_POINT('',(-10.8760508074521,-4.4617119742601,0.));
#452=CARTESIAN_POINT('',(-10.8760508074521,-4.4617119742601,0.));
#453=CARTESIAN_POINT('',(-10.9896315181138,-4.62392199039457,0.));
#454=CARTESIAN_POINT('',(-4.47879777787941,4.67450940608979,0.));
#455=CARTESIAN_POINT('',(-4.47879777787941,4.67450940608979,0.));
#456=CARTESIAN_POINT('',(-10.9896315181138,-4.62392199039457,0.));
#457=CARTESIAN_POINT('',(-3.49581132768417,3.98621594905854,-6.35));
#458=CARTESIAN_POINT('',(-4.04990850927152,5.0506296035171,-6.35));
#459=CARTESIAN_POINT('',(-3.49581132768417,3.98621594905854,0.));
#460=CARTESIAN_POINT('',(-4.04990670894301,5.05062614510887,0.));
#461=CARTESIAN_POINT('',(-4.04990850927152,5.0506296035171,4.33680868994202E-16));
#462=CARTESIAN_POINT('',(-4.04990850927152,5.0506296035171,-2.11666666666667));
#463=CARTESIAN_POINT('',(-4.04990850927152,5.0506296035171,-4.23333333333333));
#464=CARTESIAN_POINT('',(-4.04990850927152,5.0506296035171,-6.35));
#465=CARTESIAN_POINT('',(-3.49581132768417,3.98621594905854,0.));
#466=CARTESIAN_POINT('',(-4.04990373491065,5.05062329769135,-6.35));
#467=CARTESIAN_POINT('',(-1.81429707151528,6.21442416057614,-6.35));
#468=CARTESIAN_POINT('',(-4.04990373491065,5.05062329769135,0.));
#469=CARTESIAN_POINT('',(-1.81429574702896,6.21442161630029,0.));
#470=CARTESIAN_POINT('',(-1.81429707151528,6.21442416057614,4.33680868994202E-16));
#471=CARTESIAN_POINT('',(-1.81429707151528,6.21442416057614,-2.11666666666667));
#472=CARTESIAN_POINT('',(-1.81429707151528,6.21442416057614,-4.23333333333333));
#473=CARTESIAN_POINT('',(-1.81429707151528,6.21442416057614,-6.35));
#474=CARTESIAN_POINT('',(-4.04990373491065,5.05062329769135,0.));
#475=CARTESIAN_POINT('',(-1.26020036577013,5.15000379085542,-6.35));
#476=CARTESIAN_POINT('',(-1.26020036577013,6.35000383853915,-6.35));
#477=CARTESIAN_POINT('',(-1.26020036577013,5.15000379085542,0.));
#478=CARTESIAN_POINT('',(-1.26020036577013,6.35000383853915,0.));
#479=CARTESIAN_POINT('',(-1.26020036577013,6.35000383853915,0.));
#480=CARTESIAN_POINT('',(-1.26020036577013,5.15000379085542,0.));
#481=CARTESIAN_POINT('',(-1.26020036577013,6.35000073909761,0.));
#482=CARTESIAN_POINT('',(9.8930677815177,6.35000073909761,0.));
#483=CARTESIAN_POINT('',(9.8930677815177,6.35000073909761,0.));
#484=CARTESIAN_POINT('',(9.8930677815177,6.35000073909761,-6.35));
#485=CARTESIAN_POINT('',(-1.26020036577013,6.35000073909761,-6.35));
#486=CARTESIAN_POINT('',(-1.26020036577013,6.35000073909761,0.));
#487=CARTESIAN_POINT('',(-9.89306845279492,-5.15000383853912,0.));
#488=CARTESIAN_POINT('',(9.8930677815177,5.15000073909761,0.));
#489=CARTESIAN_POINT('',(3.49582685590955,-3.98620378971098,0.));
#490=CARTESIAN_POINT('',(-9.89306845279492,-5.15000383853912,-6.35));
#491=CARTESIAN_POINT('',(9.8930677815177,5.15000073909761,-6.35));
#492=CARTESIAN_POINT('',(3.49582685590955,-3.98620378971098,-6.35));
#493=CARTESIAN_POINT('',(-9.89306845279492,-5.15000383853912,0.));
#494=CARTESIAN_POINT('',(9.8930677815177,5.15000073909761,0.));
#495=MECHANICAL_DESIGN_GEOMETRIC_PRESENTATION_REPRESENTATION('',(#285,#286,
#287),#496);
#496=(
GEOMETRIC_REPRESENTATION_CONTEXT(3)
GLOBAL_UNCERTAINTY_ASSIGNED_CONTEXT((#497))
GLOBAL_UNIT_ASSIGNED_CONTEXT((#503,#499,#498))
REPRESENTATION_CONTEXT('DN__150612','TOP_LEVEL_ASSEMBLY_PART')
);
#497=UNCERTAINTY_MEASURE_WITH_UNIT(LENGTH_MEASURE(0.0508),#503,
'DISTANCE_ACCURACY_VALUE','Maximum Tolerance applied to model');
#498=(
NAMED_UNIT(*)
SI_UNIT($,.STERADIAN.)
SOLID_ANGLE_UNIT()
);
#499=(
CONVERSION_BASED_UNIT('DEGREE',#501)
NAMED_UNIT(#500)
PLANE_ANGLE_UNIT()
);
#500=DIMENSIONAL_EXPONENTS(0.,0.,0.,0.,0.,0.,0.);
#501=PLANE_ANGLE_MEASURE_WITH_UNIT(PLANE_ANGLE_MEASURE(0.0174532925),#502);
#502=(
NAMED_UNIT(*)
PLANE_ANGLE_UNIT()
SI_UNIT($,.RADIAN.)
);
#503=(
LENGTH_UNIT()
NAMED_UNIT(*)
SI_UNIT(.MILLI.,.METRE.)
);
ENDSEC;
END-ISO-10303-21;
