ISO-10303-21;
HEADER;
/* Generated by software containing ST-Developer
 * from STEP Tools, Inc. (www.steptools.com) 
 */
/* OPTION: using custom schema-name function */

FILE_DESCRIPTION(
/* description */ (''),
/* implementation_level */ '2;1');

FILE_NAME(
/* name */ 'ABER2606ZFFR-M15.stp',
/* time_stamp */ '2012-08-10T16:03:40+06:00',
/* author */ (''),
/* organization */ (''),
/* preprocessor_version */ 'ST-DEVELOPER v11',
/* originating_system */ 'SIEMENS PLM Software NX 7.5',
/* authorisation */ '');

FILE_SCHEMA (('AUTOMOTIVE_DESIGN { 1 0 10303 214 1 1 1 1 }'));
ENDSEC;

DATA;
#10=SHAPE_REPRESENTATION_RELATIONSHIP('None',
'relationship between inpu4850iqew-None and inpu4850iqew-None',#22,#11);
#11=ADVANCED_BREP_SHAPE_REPRESENTATION('inpu4850iqew-None',(#32),#393);
#12=SHAPE_DEFINITION_REPRESENTATION(#13,#22);
#13=PRODUCT_DEFINITION_SHAPE('','',#14);
#14=PRODUCT_DEFINITION(' ','',#16,#15);
#15=PRODUCT_DEFINITION_CONTEXT('part definition',#21,'design');
#16=PRODUCT_DEFINITION_FORMATION_WITH_SPECIFIED_SOURCE(' ',' ',#18,.NOT_KNOWN.);
#17=PRODUCT_RELATED_PRODUCT_CATEGORY('part','',(#18));
#18=PRODUCT('inpu4850iqew','inpu4850iqew',' ',(#19));
#19=PRODUCT_CONTEXT(' ',#21,'mechanical');
#20=APPLICATION_PROTOCOL_DEFINITION('international standard',
'automotive_design',2001,#21);
#21=APPLICATION_CONTEXT(
'core data for automotive mechanical design processes');
#22=SHAPE_REPRESENTATION('inpu4850iqew-None',(#244),#393);
#23=PRESENTATION_LAYER_ASSIGNMENT('3','Layer 3',(#32));
#24=STYLED_ITEM('',(#25),#32);
#25=PRESENTATION_STYLE_ASSIGNMENT((#26));
#26=SURFACE_STYLE_USAGE(.BOTH.,#27);
#27=SURFACE_SIDE_STYLE('',(#28));
#28=SURFACE_STYLE_FILL_AREA(#29);
#29=FILL_AREA_STYLE('',(#30));
#30=FILL_AREA_STYLE_COLOUR('',#31);
#31=COLOUR_RGB('Light Gray',0.8,0.8,0.8);
#32=MANIFOLD_SOLID_BREP('',#33);
#33=CLOSED_SHELL('',(#46,#47,#48,#49,#50,#51,#52,#53,#54,#55,#56,#57));
#34=CONICAL_SURFACE('',#248,1.,5.);
#35=CONICAL_SURFACE('',#253,3.,5.);
#36=CONICAL_SURFACE('',#257,0.999999999999999,5.);
#37=CONICAL_SURFACE('',#262,3.,5.);
#38=CIRCLE('',#246,1.);
#39=CIRCLE('',#247,0.444446986610384);
#40=CIRCLE('',#251,3.);
#41=CIRCLE('',#252,2.44444698661038);
#42=CIRCLE('',#255,0.999999999999999);
#43=CIRCLE('',#256,0.444446986610382);
#44=CIRCLE('',#260,3.);
#45=CIRCLE('',#261,2.44444698661038);
#46=ADVANCED_FACE('',(#66),#58,.T.);
#47=ADVANCED_FACE('',(#67),#34,.T.);
#48=ADVANCED_FACE('',(#68),#59,.T.);
#49=ADVANCED_FACE('',(#69),#60,.T.);
#50=ADVANCED_FACE('',(#70),#35,.T.);
#51=ADVANCED_FACE('',(#71),#61,.T.);
#52=ADVANCED_FACE('',(#72),#36,.T.);
#53=ADVANCED_FACE('',(#73),#62,.T.);
#54=ADVANCED_FACE('',(#74),#63,.T.);
#55=ADVANCED_FACE('',(#75),#37,.T.);
#56=ADVANCED_FACE('',(#76),#64,.F.);
#57=ADVANCED_FACE('',(#77),#65,.T.);
#58=PLANE('',#245);
#59=PLANE('',#249);
#60=PLANE('',#250);
#61=PLANE('',#254);
#62=PLANE('',#258);
#63=PLANE('',#259);
#64=PLANE('',#263);
#65=PLANE('',#264);
#66=FACE_OUTER_BOUND('',#78,.T.);
#67=FACE_OUTER_BOUND('',#79,.T.);
#68=FACE_OUTER_BOUND('',#80,.T.);
#69=FACE_OUTER_BOUND('',#81,.T.);
#70=FACE_OUTER_BOUND('',#82,.T.);
#71=FACE_OUTER_BOUND('',#83,.T.);
#72=FACE_OUTER_BOUND('',#84,.T.);
#73=FACE_OUTER_BOUND('',#85,.T.);
#74=FACE_OUTER_BOUND('',#86,.T.);
#75=FACE_OUTER_BOUND('',#87,.T.);
#76=FACE_OUTER_BOUND('',#88,.T.);
#77=FACE_OUTER_BOUND('',#89,.T.);
#78=EDGE_LOOP('',(#90,#91,#92,#93));
#79=EDGE_LOOP('',(#94,#95,#96,#97));
#80=EDGE_LOOP('',(#98,#99,#100,#101));
#81=EDGE_LOOP('',(#102,#103,#104,#105));
#82=EDGE_LOOP('',(#106,#107,#108,#109));
#83=EDGE_LOOP('',(#110,#111,#112,#113));
#84=EDGE_LOOP('',(#114,#115,#116,#117));
#85=EDGE_LOOP('',(#118,#119,#120,#121));
#86=EDGE_LOOP('',(#122,#123,#124,#125));
#87=EDGE_LOOP('',(#126,#127,#128,#129));
#88=EDGE_LOOP('',(#130,#131,#132,#133,#134,#135,#136,#137,#138,#139));
#89=EDGE_LOOP('',(#140,#141,#142,#143,#144,#145,#146,#147,#148,#149));
#90=ORIENTED_EDGE('',*,*,#170,.F.);
#91=ORIENTED_EDGE('',*,*,#171,.F.);
#92=ORIENTED_EDGE('',*,*,#172,.T.);
#93=ORIENTED_EDGE('',*,*,#173,.T.);
#94=ORIENTED_EDGE('',*,*,#174,.F.);
#95=ORIENTED_EDGE('',*,*,#173,.F.);
#96=ORIENTED_EDGE('',*,*,#175,.T.);
#97=ORIENTED_EDGE('',*,*,#176,.T.);
#98=ORIENTED_EDGE('',*,*,#177,.F.);
#99=ORIENTED_EDGE('',*,*,#176,.F.);
#100=ORIENTED_EDGE('',*,*,#178,.T.);
#101=ORIENTED_EDGE('',*,*,#179,.T.);
#102=ORIENTED_EDGE('',*,*,#180,.F.);
#103=ORIENTED_EDGE('',*,*,#179,.F.);
#104=ORIENTED_EDGE('',*,*,#181,.T.);
#105=ORIENTED_EDGE('',*,*,#182,.T.);
#106=ORIENTED_EDGE('',*,*,#183,.F.);
#107=ORIENTED_EDGE('',*,*,#182,.F.);
#108=ORIENTED_EDGE('',*,*,#184,.T.);
#109=ORIENTED_EDGE('',*,*,#185,.T.);
#110=ORIENTED_EDGE('',*,*,#186,.F.);
#111=ORIENTED_EDGE('',*,*,#185,.F.);
#112=ORIENTED_EDGE('',*,*,#187,.T.);
#113=ORIENTED_EDGE('',*,*,#188,.T.);
#114=ORIENTED_EDGE('',*,*,#189,.F.);
#115=ORIENTED_EDGE('',*,*,#188,.F.);
#116=ORIENTED_EDGE('',*,*,#190,.T.);
#117=ORIENTED_EDGE('',*,*,#191,.T.);
#118=ORIENTED_EDGE('',*,*,#192,.F.);
#119=ORIENTED_EDGE('',*,*,#191,.F.);
#120=ORIENTED_EDGE('',*,*,#193,.T.);
#121=ORIENTED_EDGE('',*,*,#194,.T.);
#122=ORIENTED_EDGE('',*,*,#195,.F.);
#123=ORIENTED_EDGE('',*,*,#194,.F.);
#124=ORIENTED_EDGE('',*,*,#196,.T.);
#125=ORIENTED_EDGE('',*,*,#197,.T.);
#126=ORIENTED_EDGE('',*,*,#198,.F.);
#127=ORIENTED_EDGE('',*,*,#197,.F.);
#128=ORIENTED_EDGE('',*,*,#199,.T.);
#129=ORIENTED_EDGE('',*,*,#171,.T.);
#130=ORIENTED_EDGE('',*,*,#172,.F.);
#131=ORIENTED_EDGE('',*,*,#199,.F.);
#132=ORIENTED_EDGE('',*,*,#196,.F.);
#133=ORIENTED_EDGE('',*,*,#193,.F.);
#134=ORIENTED_EDGE('',*,*,#190,.F.);
#135=ORIENTED_EDGE('',*,*,#187,.F.);
#136=ORIENTED_EDGE('',*,*,#184,.F.);
#137=ORIENTED_EDGE('',*,*,#181,.F.);
#138=ORIENTED_EDGE('',*,*,#178,.F.);
#139=ORIENTED_EDGE('',*,*,#175,.F.);
#140=ORIENTED_EDGE('',*,*,#170,.T.);
#141=ORIENTED_EDGE('',*,*,#174,.T.);
#142=ORIENTED_EDGE('',*,*,#177,.T.);
#143=ORIENTED_EDGE('',*,*,#180,.T.);
#144=ORIENTED_EDGE('',*,*,#183,.T.);
#145=ORIENTED_EDGE('',*,*,#186,.T.);
#146=ORIENTED_EDGE('',*,*,#189,.T.);
#147=ORIENTED_EDGE('',*,*,#192,.T.);
#148=ORIENTED_EDGE('',*,*,#195,.T.);
#149=ORIENTED_EDGE('',*,*,#198,.T.);
#150=VERTEX_POINT('',#331);
#151=VERTEX_POINT('',#332);
#152=VERTEX_POINT('',#334);
#153=VERTEX_POINT('',#336);
#154=VERTEX_POINT('',#340);
#155=VERTEX_POINT('',#342);
#156=VERTEX_POINT('',#346);
#157=VERTEX_POINT('',#348);
#158=VERTEX_POINT('',#352);
#159=VERTEX_POINT('',#354);
#160=VERTEX_POINT('',#358);
#161=VERTEX_POINT('',#360);
#162=VERTEX_POINT('',#364);
#163=VERTEX_POINT('',#366);
#164=VERTEX_POINT('',#370);
#165=VERTEX_POINT('',#372);
#166=VERTEX_POINT('',#376);
#167=VERTEX_POINT('',#378);
#168=VERTEX_POINT('',#382);
#169=VERTEX_POINT('',#384);
#170=EDGE_CURVE('',#150,#151,#200,.T.);
#171=EDGE_CURVE('',#152,#150,#201,.T.);
#172=EDGE_CURVE('',#152,#153,#202,.T.);
#173=EDGE_CURVE('',#153,#151,#203,.T.);
#174=EDGE_CURVE('',#151,#154,#38,.T.);
#175=EDGE_CURVE('',#153,#155,#39,.T.);
#176=EDGE_CURVE('',#155,#154,#204,.T.);
#177=EDGE_CURVE('',#154,#156,#205,.T.);
#178=EDGE_CURVE('',#155,#157,#206,.T.);
#179=EDGE_CURVE('',#157,#156,#207,.T.);
#180=EDGE_CURVE('',#156,#158,#208,.T.);
#181=EDGE_CURVE('',#157,#159,#209,.T.);
#182=EDGE_CURVE('',#159,#158,#210,.T.);
#183=EDGE_CURVE('',#158,#160,#40,.T.);
#184=EDGE_CURVE('',#159,#161,#41,.T.);
#185=EDGE_CURVE('',#161,#160,#211,.T.);
#186=EDGE_CURVE('',#160,#162,#212,.T.);
#187=EDGE_CURVE('',#161,#163,#213,.T.);
#188=EDGE_CURVE('',#163,#162,#214,.T.);
#189=EDGE_CURVE('',#162,#164,#42,.T.);
#190=EDGE_CURVE('',#163,#165,#43,.T.);
#191=EDGE_CURVE('',#165,#164,#215,.T.);
#192=EDGE_CURVE('',#164,#166,#216,.T.);
#193=EDGE_CURVE('',#165,#167,#217,.T.);
#194=EDGE_CURVE('',#167,#166,#218,.T.);
#195=EDGE_CURVE('',#166,#168,#219,.T.);
#196=EDGE_CURVE('',#167,#169,#220,.T.);
#197=EDGE_CURVE('',#169,#168,#221,.T.);
#198=EDGE_CURVE('',#168,#150,#44,.T.);
#199=EDGE_CURVE('',#169,#152,#45,.T.);
#200=LINE('',#330,#222);
#201=LINE('',#333,#223);
#202=LINE('',#335,#224);
#203=LINE('',#337,#225);
#204=LINE('',#343,#226);
#205=LINE('',#345,#227);
#206=LINE('',#347,#228);
#207=LINE('',#349,#229);
#208=LINE('',#351,#230);
#209=LINE('',#353,#231);
#210=LINE('',#355,#232);
#211=LINE('',#361,#233);
#212=LINE('',#363,#234);
#213=LINE('',#365,#235);
#214=LINE('',#367,#236);
#215=LINE('',#373,#237);
#216=LINE('',#375,#238);
#217=LINE('',#377,#239);
#218=LINE('',#379,#240);
#219=LINE('',#381,#241);
#220=LINE('',#383,#242);
#221=LINE('',#385,#243);
#222=VECTOR('',#267,1.);
#223=VECTOR('',#268,1.);
#224=VECTOR('',#269,1.);
#225=VECTOR('',#270,1.);
#226=VECTOR('',#277,1.);
#227=VECTOR('',#280,1.);
#228=VECTOR('',#281,1.);
#229=VECTOR('',#282,1.);
#230=VECTOR('',#285,1.);
#231=VECTOR('',#286,1.);
#232=VECTOR('',#287,1.);
#233=VECTOR('',#294,1.);
#234=VECTOR('',#297,1.);
#235=VECTOR('',#298,1.);
#236=VECTOR('',#299,1.);
#237=VECTOR('',#306,1.);
#238=VECTOR('',#309,1.);
#239=VECTOR('',#310,1.);
#240=VECTOR('',#311,1.);
#241=VECTOR('',#314,1.);
#242=VECTOR('',#315,1.);
#243=VECTOR('',#316,1.);
#244=AXIS2_PLACEMENT_3D('',#329,#265,#266);
#245=AXIS2_PLACEMENT_3D('',#338,#271,#272);
#246=AXIS2_PLACEMENT_3D('',#339,#273,#274);
#247=AXIS2_PLACEMENT_3D('',#341,#275,#276);
#248=AXIS2_PLACEMENT_3D('',#344,#278,#279);
#249=AXIS2_PLACEMENT_3D('',#350,#283,#284);
#250=AXIS2_PLACEMENT_3D('',#356,#288,#289);
#251=AXIS2_PLACEMENT_3D('',#357,#290,#291);
#252=AXIS2_PLACEMENT_3D('',#359,#292,#293);
#253=AXIS2_PLACEMENT_3D('',#362,#295,#296);
#254=AXIS2_PLACEMENT_3D('',#368,#300,#301);
#255=AXIS2_PLACEMENT_3D('',#369,#302,#303);
#256=AXIS2_PLACEMENT_3D('',#371,#304,#305);
#257=AXIS2_PLACEMENT_3D('',#374,#307,#308);
#258=AXIS2_PLACEMENT_3D('',#380,#312,#313);
#259=AXIS2_PLACEMENT_3D('',#386,#317,#318);
#260=AXIS2_PLACEMENT_3D('',#387,#319,#320);
#261=AXIS2_PLACEMENT_3D('',#388,#321,#322);
#262=AXIS2_PLACEMENT_3D('',#389,#323,#324);
#263=AXIS2_PLACEMENT_3D('',#390,#325,#326);
#264=AXIS2_PLACEMENT_3D('',#391,#327,#328);
#265=DIRECTION('',(0.,0.,1.));
#266=DIRECTION('',(1.,0.,0.));
#267=DIRECTION('',(1.,1.67339464620953E-016,0.));
#268=DIRECTION('',(1.51191113010558E-016,-0.0871557427476581,0.996194698091746));
#269=DIRECTION('',(1.,1.67339464620953E-016,0.));
#270=DIRECTION('',(1.45845953300346E-017,-0.0871557427476581,0.996194698091746));
#271=DIRECTION('',(1.66702687436905E-016,-0.996194698091746,-0.0871557427476581));
#272=DIRECTION('',(0.,0.0871557427476581,-0.996194698091746));
#273=DIRECTION('',(0.,0.,1.));
#274=DIRECTION('',(0.,1.,0.));
#275=DIRECTION('',(0.,0.,1.));
#276=DIRECTION('',(1.,0.,0.));
#277=DIRECTION('',(0.0868240888334651,-0.0075961234938963,0.996194698091746));
#278=DIRECTION('',(0.,0.,1.));
#279=DIRECTION('',(5.88117191577404E-017,1.,0.));
#280=DIRECTION('',(0.0871557427479453,0.99619469809172,0.));
#281=DIRECTION('',(0.0871557427479453,0.99619469809172,0.));
#282=DIRECTION('',(0.0871551117328748,-0.00380527435756666,0.996187485559768));
#283=DIRECTION('',(0.992403876506079,-0.0868240888337512,-0.0871557427476581));
#284=DIRECTION('',(-0.0874861202210136,0.,-0.996165738604111));
#285=DIRECTION('',(0.,1.,0.));
#286=DIRECTION('',(0.,1.,0.));
#287=DIRECTION('',(0.0871557427476581,0.,0.996194698091746));
#288=DIRECTION('',(0.996194698091746,0.,-0.0871557427476581));
#289=DIRECTION('',(-0.0871557427476581,0.,-0.996194698091746));
#290=DIRECTION('',(0.,0.,1.));
#291=DIRECTION('',(0.,1.,0.));
#292=DIRECTION('',(0.,0.,1.));
#293=DIRECTION('',(1.,0.,0.));
#294=DIRECTION('',(1.00794075340372E-016,0.0871557427476581,0.996194698091746));
#295=DIRECTION('',(0.,0.,1.));
#296=DIRECTION('',(5.75118498290063E-017,1.,0.));
#297=DIRECTION('',(-1.,-5.43853260018037E-016,0.));
#298=DIRECTION('',(-1.,-5.43853260018037E-016,0.));
#299=DIRECTION('',(-4.73999348226072E-017,0.0871557427476581,0.996194698091746));
#300=DIRECTION('',(-5.4178373416988E-016,0.996194698091746,-0.0871557427476581));
#301=DIRECTION('',(0.,0.0871557427476581,0.996194698091746));
#302=DIRECTION('',(0.,0.,1.));
#303=DIRECTION('',(0.,1.,0.));
#304=DIRECTION('',(0.,0.,1.));
#305=DIRECTION('',(1.,0.,0.));
#306=DIRECTION('',(-0.0868240888334651,0.00759612349389609,0.996194698091746));
#307=DIRECTION('',(0.,0.,1.));
#308=DIRECTION('',(5.88117191577404E-017,1.,0.));
#309=DIRECTION('',(-0.087155742747658,-0.996194698091746,0.));
#310=DIRECTION('',(-0.087155742747658,-0.996194698091746,0.));
#311=DIRECTION('',(-0.0871551117328748,0.00380527435755395,0.996187485559768));
#312=DIRECTION('',(-0.992403876506104,0.086824088833465,-0.0871557427476581));
#313=DIRECTION('',(-0.0874861202210114,0.,0.996165738604112));
#314=DIRECTION('',(0.,-1.,0.));
#315=DIRECTION('',(0.,-1.,0.));
#316=DIRECTION('',(-0.0871557427476581,0.,0.996194698091746));
#317=DIRECTION('',(-0.996194698091746,0.,-0.0871557427476581));
#318=DIRECTION('',(-0.0871557427476581,0.,0.996194698091746));
#319=DIRECTION('',(0.,0.,1.));
#320=DIRECTION('',(0.,1.,0.));
#321=DIRECTION('',(0.,0.,1.));
#322=DIRECTION('',(1.,0.,0.));
#323=DIRECTION('',(0.,0.,1.));
#324=DIRECTION('',(5.75118498290063E-017,1.,0.));
#325=DIRECTION('',(0.,0.,1.));
#326=DIRECTION('',(1.,0.,0.));
#327=DIRECTION('',(0.,0.,1.));
#328=DIRECTION('',(1.,0.,0.));
#329=CARTESIAN_POINT('',(0.,0.,0.));
#330=CARTESIAN_POINT('',(-9.20171618985528,-7.,0.));
#331=CARTESIAN_POINT('',(-9.20171618985528,-7.,0.));
#332=CARTESIAN_POINT('',(11.5312708542493,-7.,0.));
#333=CARTESIAN_POINT('',(-9.20171618985528,-6.99999999999999,9.790026036681E-016));
#334=CARTESIAN_POINT('',(-9.20171618985528,-6.44444698661037,-6.35));
#335=CARTESIAN_POINT('',(11.5312708542493,-6.44444698661038,-6.35));
#336=CARTESIAN_POINT('',(11.5312708542493,-6.44444698661038,-6.35));
#337=CARTESIAN_POINT('',(11.5312708542493,-7.,0.));
#338=CARTESIAN_POINT('',(-9.20171618985528,-7.,0.));
#339=CARTESIAN_POINT('',(11.5312708542493,-6.00000000000001,0.));
#340=CARTESIAN_POINT('',(12.527465552341,-6.08715574274767,0.));
#341=CARTESIAN_POINT('',(11.5312708542493,-6.00000000000001,-6.35));
#342=CARTESIAN_POINT('',(11.9740265858934,-6.03873610723,-6.35));
#343=CARTESIAN_POINT('',(12.527465552341,-6.08715574274767,3.76539462949269E-017));
#344=CARTESIAN_POINT('',(11.5312708542493,-6.00000000000001,0.));
#345=CARTESIAN_POINT('',(12.527465552341,-6.08715574274766,0.));
#346=CARTESIAN_POINT('',(13.2350000000024,2.00000000000001,0.));
#347=CARTESIAN_POINT('',(11.9740265858934,-6.03873610723012,-6.35));
#348=CARTESIAN_POINT('',(12.6794469866127,2.02425596840034,-6.35));
#349=CARTESIAN_POINT('',(13.2323076568045,2.00011755024266,-0.0307736235683337));
#350=CARTESIAN_POINT('',(12.527465552341,-6.08715574274766,0.));
#351=CARTESIAN_POINT('',(13.2350000000024,2.00000000000001,0.));
#352=CARTESIAN_POINT('',(13.2350000000024,4.00000000000001,0.));
#353=CARTESIAN_POINT('',(12.6794469866127,-6.00000000000001,-6.35));
#354=CARTESIAN_POINT('',(12.6794469866127,4.00000000000001,-6.35));
#355=CARTESIAN_POINT('',(13.2350000000024,4.00000000000001,0.));
#356=CARTESIAN_POINT('',(13.2350000000024,2.00000000000001,0.));
#357=CARTESIAN_POINT('',(10.2350000000024,3.99999999999999,0.));
#358=CARTESIAN_POINT('',(10.2350000000024,7.,0.));
#359=CARTESIAN_POINT('',(10.2350000000024,3.99999999999999,-6.35));
#360=CARTESIAN_POINT('',(10.2350000000024,6.44444698661038,-6.35));
#361=CARTESIAN_POINT('',(10.2350000000024,7.,0.));
#362=CARTESIAN_POINT('',(10.2350000000024,3.99999999999999,0.));
#363=CARTESIAN_POINT('',(10.2350000000023,7.00000000000001,0.));
#364=CARTESIAN_POINT('',(-10.4979870441045,7.,0.));
#365=CARTESIAN_POINT('',(11.5312708542492,6.44444698661039,-6.35));
#366=CARTESIAN_POINT('',(-10.4979870441045,6.44444698661038,-6.35));
#367=CARTESIAN_POINT('',(-10.4979870441045,7.,-3.85185988877447E-031));
#368=CARTESIAN_POINT('',(10.2350000000023,7.00000000000001,0.));
#369=CARTESIAN_POINT('',(-10.4979870441045,6.00000000000001,0.));
#370=CARTESIAN_POINT('',(-11.4941817421963,6.08715574274767,0.));
#371=CARTESIAN_POINT('',(-10.4979870441045,6.00000000000001,-6.35));
#372=CARTESIAN_POINT('',(-10.9407427757487,6.03873610723,-6.35));
#373=CARTESIAN_POINT('',(-11.4941817421963,6.08715574274767,1.88269731474635E-017));
#374=CARTESIAN_POINT('',(-10.4979870441045,6.00000000000001,0.));
#375=CARTESIAN_POINT('',(-11.4941817421963,6.08715574274766,0.));
#376=CARTESIAN_POINT('',(-12.2017161898553,-2.,0.));
#377=CARTESIAN_POINT('',(-11.8152948782755,-3.95744016614129,-6.35));
#378=CARTESIAN_POINT('',(-11.6461631764657,-2.02425596840026,-6.35));
#379=CARTESIAN_POINT('',(-12.1990238466574,-2.00011755024265,-0.030773623568232));
#380=CARTESIAN_POINT('',(-11.4941817421963,6.08715574274766,0.));
#381=CARTESIAN_POINT('',(-12.2017161898553,-2.,0.));
#382=CARTESIAN_POINT('',(-12.2017161898553,-4.,0.));
#383=CARTESIAN_POINT('',(-11.6461631764657,-6.00000000000001,-6.35));
#384=CARTESIAN_POINT('',(-11.6461631764657,-4.,-6.35));
#385=CARTESIAN_POINT('',(-12.2017161898553,-4.,0.));
#386=CARTESIAN_POINT('',(-12.2017161898553,-2.,0.));
#387=CARTESIAN_POINT('',(-9.20171618985528,-3.99999999999999,0.));
#388=CARTESIAN_POINT('',(-9.20171618985528,-3.99999999999999,-6.35));
#389=CARTESIAN_POINT('',(-9.20171618985528,-3.99999999999999,0.));
#390=CARTESIAN_POINT('',(11.5312708542493,-6.00000000000001,-6.35));
#391=CARTESIAN_POINT('',(11.5312708542493,-6.00000000000001,0.));
#392=MECHANICAL_DESIGN_GEOMETRIC_PRESENTATION_REPRESENTATION('',(#24),#393);
#393=(
GEOMETRIC_REPRESENTATION_CONTEXT(3)
GLOBAL_UNCERTAINTY_ASSIGNED_CONTEXT((#394))
GLOBAL_UNIT_ASSIGNED_CONTEXT((#400,#396,#395))
REPRESENTATION_CONTEXT('ABER2606ZFFR-M15','TOP_LEVEL_ASSEMBLY_PART')
);
#394=UNCERTAINTY_MEASURE_WITH_UNIT(LENGTH_MEASURE(2.E-005),#400,
'DISTANCE_ACCURACY_VALUE','Maximum Tolerance applied to model');
#395=(
NAMED_UNIT(*)
SI_UNIT($,.STERADIAN.)
SOLID_ANGLE_UNIT()
);
#396=(
CONVERSION_BASED_UNIT('DEGREE',#398)
NAMED_UNIT(#397)
PLANE_ANGLE_UNIT()
);
#397=DIMENSIONAL_EXPONENTS(0.,0.,0.,0.,0.,0.,0.);
#398=PLANE_ANGLE_MEASURE_WITH_UNIT(PLANE_ANGLE_MEASURE(0.0174532925),#399);
#399=(
NAMED_UNIT(*)
PLANE_ANGLE_UNIT()
SI_UNIT($,.RADIAN.)
);
#400=(
LENGTH_UNIT()
NAMED_UNIT(*)
SI_UNIT(.MILLI.,.METRE.)
);
ENDSEC;
END-ISO-10303-21;
