ISO-10303-21;
HEADER;
/* Generated by software containing ST-Developer
 * from STEP Tools, Inc. (www.steptools.com) 
 */
/* OPTION: using custom schema-name function */

FILE_DESCRIPTION(
/* description */ (''),
/* implementation_level */ '2;1');

FILE_NAME(
/* name */ '218.19-125T-T3-M07.stp',
/* time_stamp */ '2012-07-09T15:33:32+05:00',
/* author */ (''),
/* organization */ (''),
/* preprocessor_version */ 'ST-DEVELOPER v11',
/* originating_system */ 'SIEMENS PLM Software NX 7.5',
/* authorisation */ '');

FILE_SCHEMA (('AUTOMOTIVE_DESIGN { 1 0 10303 214 1 1 1 1 }'));
ENDSEC;

DATA;
#10=SHAPE_REPRESENTATION_RELATIONSHIP('None',
'relationship between inpu3A41vh5j-None and inpu3A41vh5j-None',#22,#11);
#11=ADVANCED_BREP_SHAPE_REPRESENTATION('inpu3A41vh5j-None',(#32),#265);
#12=SHAPE_DEFINITION_REPRESENTATION(#13,#22);
#13=PRODUCT_DEFINITION_SHAPE('','',#14);
#14=PRODUCT_DEFINITION(' ','',#16,#15);
#15=PRODUCT_DEFINITION_CONTEXT('part definition',#21,'design');
#16=PRODUCT_DEFINITION_FORMATION_WITH_SPECIFIED_SOURCE(' ',' ',#18,.NOT_KNOWN.);
#17=PRODUCT_RELATED_PRODUCT_CATEGORY('part','',(#18));
#18=PRODUCT('inpu3A41vh5j','inpu3A41vh5j',' ',(#19));
#19=PRODUCT_CONTEXT(' ',#21,'mechanical');
#20=APPLICATION_PROTOCOL_DEFINITION('international standard',
'automotive_design',2001,#21);
#21=APPLICATION_CONTEXT(
'core data for automotive mechanical design processes');
#22=SHAPE_REPRESENTATION('inpu3A41vh5j-None',(#156),#265);
#23=PRESENTATION_LAYER_ASSIGNMENT('3','Layer 3',(#32));
#24=STYLED_ITEM('',(#25),#32);
#25=PRESENTATION_STYLE_ASSIGNMENT((#26));
#26=SURFACE_STYLE_USAGE(.BOTH.,#27);
#27=SURFACE_SIDE_STYLE('',(#28));
#28=SURFACE_STYLE_FILL_AREA(#29);
#29=FILL_AREA_STYLE('',(#30));
#30=FILL_AREA_STYLE_COLOUR('',#31);
#31=COLOUR_RGB('Light Gray',0.8,0.8,0.8);
#32=MANIFOLD_SOLID_BREP('',#33);
#33=CLOSED_SHELL('',(#36,#37,#38,#39,#40,#41,#42,#43));
#34=PLANE('',#172);
#35=PLANE('',#173);
#36=ADVANCED_FACE('',(#50),#44,.T.);
#37=ADVANCED_FACE('',(#51),#45,.T.);
#38=ADVANCED_FACE('',(#52),#46,.T.);
#39=ADVANCED_FACE('',(#53),#47,.T.);
#40=ADVANCED_FACE('',(#54),#48,.T.);
#41=ADVANCED_FACE('',(#55),#49,.T.);
#42=ADVANCED_FACE('',(#56),#34,.T.);
#43=ADVANCED_FACE('',(#57),#35,.F.);
#44=CONICAL_SURFACE('',#159,12.5,12.);
#45=CONICAL_SURFACE('',#161,0.800000000000032,12.);
#46=CONICAL_SURFACE('',#164,12.5,12.);
#47=CONICAL_SURFACE('',#166,0.800000000000003,12.);
#48=CONICAL_SURFACE('',#169,12.5,12.);
#49=CONICAL_SURFACE('',#171,0.8,12.);
#50=FACE_OUTER_BOUND('',#58,.T.);
#51=FACE_OUTER_BOUND('',#59,.T.);
#52=FACE_OUTER_BOUND('',#60,.T.);
#53=FACE_OUTER_BOUND('',#61,.T.);
#54=FACE_OUTER_BOUND('',#62,.T.);
#55=FACE_OUTER_BOUND('',#63,.T.);
#56=FACE_OUTER_BOUND('',#64,.T.);
#57=FACE_OUTER_BOUND('',#65,.T.);
#58=EDGE_LOOP('',(#81,#82,#83,#84,#85,#86));
#59=EDGE_LOOP('',(#87,#88,#89));
#60=EDGE_LOOP('',(#90,#91,#92,#93,#94,#95));
#61=EDGE_LOOP('',(#96,#97,#98));
#62=EDGE_LOOP('',(#99,#100,#101,#102,#103,#104));
#63=EDGE_LOOP('',(#105,#106,#107));
#64=EDGE_LOOP('',(#108,#109,#110));
#65=EDGE_LOOP('',(#111,#112,#113,#114,#115,#116));
#66=B_SPLINE_CURVE_WITH_KNOTS('',3,(#222,#223,#224,#225),.UNSPECIFIED.,.F.,
 .F.,(4,4),(0.,1.),.UNSPECIFIED.);
#67=B_SPLINE_CURVE_WITH_KNOTS('',3,(#229,#230,#231,#232),.UNSPECIFIED.,.F.,
 .F.,(4,4),(0.,1.),.UNSPECIFIED.);
#68=B_SPLINE_CURVE_WITH_KNOTS('',3,(#244,#245,#246,#247),.UNSPECIFIED.,.F.,
 .F.,(4,4),(0.,1.),.UNSPECIFIED.);
#69=LINE('',#220,#75);
#70=LINE('',#234,#76);
#71=LINE('',#236,#77);
#72=LINE('',#242,#78);
#73=LINE('',#251,#79);
#74=LINE('',#257,#80);
#75=VECTOR('',#178,1.);
#76=VECTOR('',#181,1.);
#77=VECTOR('',#184,1.);
#78=VECTOR('',#191,1.);
#79=VECTOR('',#196,1.);
#80=VECTOR('',#203,1.);
#81=ORIENTED_EDGE('',*,*,#129,.T.);
#82=ORIENTED_EDGE('',*,*,#130,.F.);
#83=ORIENTED_EDGE('',*,*,#131,.F.);
#84=ORIENTED_EDGE('',*,*,#132,.F.);
#85=ORIENTED_EDGE('',*,*,#133,.T.);
#86=ORIENTED_EDGE('',*,*,#134,.T.);
#87=ORIENTED_EDGE('',*,*,#135,.F.);
#88=ORIENTED_EDGE('',*,*,#130,.T.);
#89=ORIENTED_EDGE('',*,*,#136,.T.);
#90=ORIENTED_EDGE('',*,*,#137,.T.);
#91=ORIENTED_EDGE('',*,*,#138,.F.);
#92=ORIENTED_EDGE('',*,*,#139,.F.);
#93=ORIENTED_EDGE('',*,*,#140,.F.);
#94=ORIENTED_EDGE('',*,*,#131,.T.);
#95=ORIENTED_EDGE('',*,*,#135,.T.);
#96=ORIENTED_EDGE('',*,*,#141,.F.);
#97=ORIENTED_EDGE('',*,*,#138,.T.);
#98=ORIENTED_EDGE('',*,*,#142,.T.);
#99=ORIENTED_EDGE('',*,*,#143,.T.);
#100=ORIENTED_EDGE('',*,*,#144,.F.);
#101=ORIENTED_EDGE('',*,*,#133,.F.);
#102=ORIENTED_EDGE('',*,*,#145,.F.);
#103=ORIENTED_EDGE('',*,*,#139,.T.);
#104=ORIENTED_EDGE('',*,*,#141,.T.);
#105=ORIENTED_EDGE('',*,*,#134,.F.);
#106=ORIENTED_EDGE('',*,*,#144,.T.);
#107=ORIENTED_EDGE('',*,*,#146,.T.);
#108=ORIENTED_EDGE('',*,*,#132,.T.);
#109=ORIENTED_EDGE('',*,*,#140,.T.);
#110=ORIENTED_EDGE('',*,*,#145,.T.);
#111=ORIENTED_EDGE('',*,*,#129,.F.);
#112=ORIENTED_EDGE('',*,*,#146,.F.);
#113=ORIENTED_EDGE('',*,*,#143,.F.);
#114=ORIENTED_EDGE('',*,*,#142,.F.);
#115=ORIENTED_EDGE('',*,*,#137,.F.);
#116=ORIENTED_EDGE('',*,*,#136,.F.);
#117=VERTEX_POINT('',#218);
#118=VERTEX_POINT('',#219);
#119=VERTEX_POINT('',#221);
#120=VERTEX_POINT('',#226);
#121=VERTEX_POINT('',#228);
#122=VERTEX_POINT('',#233);
#123=VERTEX_POINT('',#237);
#124=VERTEX_POINT('',#241);
#125=VERTEX_POINT('',#243);
#126=VERTEX_POINT('',#248);
#127=VERTEX_POINT('',#252);
#128=VERTEX_POINT('',#256);
#129=EDGE_CURVE('',#117,#118,#147,.T.);
#130=EDGE_CURVE('',#119,#118,#69,.T.);
#131=EDGE_CURVE('',#120,#119,#66,.T.);
#132=EDGE_CURVE('',#121,#120,#148,.T.);
#133=EDGE_CURVE('',#121,#122,#67,.T.);
#134=EDGE_CURVE('',#122,#117,#70,.T.);
#135=EDGE_CURVE('',#119,#123,#71,.T.);
#136=EDGE_CURVE('',#118,#123,#149,.T.);
#137=EDGE_CURVE('',#123,#124,#150,.T.);
#138=EDGE_CURVE('',#125,#124,#72,.T.);
#139=EDGE_CURVE('',#126,#125,#68,.T.);
#140=EDGE_CURVE('',#120,#126,#151,.T.);
#141=EDGE_CURVE('',#125,#127,#73,.T.);
#142=EDGE_CURVE('',#124,#127,#152,.T.);
#143=EDGE_CURVE('',#127,#128,#153,.T.);
#144=EDGE_CURVE('',#122,#128,#74,.T.);
#145=EDGE_CURVE('',#126,#121,#154,.T.);
#146=EDGE_CURVE('',#128,#117,#155,.T.);
#147=CIRCLE('',#157,12.5);
#148=CIRCLE('',#158,11.65615045017);
#149=CIRCLE('',#160,0.800000000000032);
#150=CIRCLE('',#162,12.5);
#151=CIRCLE('',#163,11.65615045017);
#152=CIRCLE('',#165,0.800000000000003);
#153=CIRCLE('',#167,12.5);
#154=CIRCLE('',#168,11.65615045017);
#155=CIRCLE('',#170,0.8);
#156=AXIS2_PLACEMENT_3D('',#216,#174,#175);
#157=AXIS2_PLACEMENT_3D('',#217,#176,#177);
#158=AXIS2_PLACEMENT_3D('',#227,#179,#180);
#159=AXIS2_PLACEMENT_3D('',#235,#182,#183);
#160=AXIS2_PLACEMENT_3D('',#238,#185,#186);
#161=AXIS2_PLACEMENT_3D('',#239,#187,#188);
#162=AXIS2_PLACEMENT_3D('',#240,#189,#190);
#163=AXIS2_PLACEMENT_3D('',#249,#192,#193);
#164=AXIS2_PLACEMENT_3D('',#250,#194,#195);
#165=AXIS2_PLACEMENT_3D('',#253,#197,#198);
#166=AXIS2_PLACEMENT_3D('',#254,#199,#200);
#167=AXIS2_PLACEMENT_3D('',#255,#201,#202);
#168=AXIS2_PLACEMENT_3D('',#258,#204,#205);
#169=AXIS2_PLACEMENT_3D('',#259,#206,#207);
#170=AXIS2_PLACEMENT_3D('',#260,#208,#209);
#171=AXIS2_PLACEMENT_3D('',#261,#210,#211);
#172=AXIS2_PLACEMENT_3D('',#262,#212,#213);
#173=AXIS2_PLACEMENT_3D('',#263,#214,#215);
#174=DIRECTION('',(0.,0.,1.));
#175=DIRECTION('',(1.,0.,0.));
#176=DIRECTION('',(0.,0.,-1.));
#177=DIRECTION('',(1.,1.38777878078145E-016,0.));
#178=DIRECTION('',(-0.123574711866349,0.167202158376763,0.978147600733806));
#179=DIRECTION('',(0.,0.,-1.));
#180=DIRECTION('',(-1.,0.,0.));
#181=DIRECTION('',(-0.206470319241595,0.0244392809013135,0.978147600733806));
#182=DIRECTION('',(0.,0.,1.));
#183=DIRECTION('',(1.,1.23327111236704E-016,0.));
#184=DIRECTION('',(0.123574711866354,0.16720215837676,0.978147600733806));
#185=DIRECTION('',(0.,0.,-1.));
#186=DIRECTION('',(1.,0.,0.));
#187=DIRECTION('',(0.,0.,1.));
#188=DIRECTION('',(1.,1.21959465113129E-016,0.));
#189=DIRECTION('',(0.,0.,-1.));
#190=DIRECTION('',(1.,1.38777878078145E-016,0.));
#191=DIRECTION('',(0.206470319241595,0.024439280901313,0.978147600733806));
#192=DIRECTION('',(0.,0.,-1.));
#193=DIRECTION('',(-1.,0.,0.));
#194=DIRECTION('',(0.,0.,1.));
#195=DIRECTION('',(1.,1.23327111236704E-016,0.));
#196=DIRECTION('',(0.0828956073752405,-0.190671417513453,0.978147600733806));
#197=DIRECTION('',(0.,0.,-1.));
#198=DIRECTION('',(1.,0.,0.));
#199=DIRECTION('',(0.,0.,1.));
#200=DIRECTION('',(1.,1.21959465113129E-016,0.));
#201=DIRECTION('',(0.,0.,-1.));
#202=DIRECTION('',(1.,1.38777878078145E-016,0.));
#203=DIRECTION('',(-0.0828956073752405,-0.190671417513453,0.978147600733806));
#204=DIRECTION('',(0.,0.,-1.));
#205=DIRECTION('',(-1.,0.,0.));
#206=DIRECTION('',(0.,0.,1.));
#207=DIRECTION('',(1.,1.23327111236704E-016,0.));
#208=DIRECTION('',(0.,0.,-1.));
#209=DIRECTION('',(1.,0.,0.));
#210=DIRECTION('',(0.,0.,1.));
#211=DIRECTION('',(1.,1.21959465113129E-016,0.));
#212=DIRECTION('',(0.,0.,-1.));
#213=DIRECTION('',(-1.,0.,0.));
#214=DIRECTION('',(0.,0.,-1.));
#215=DIRECTION('',(-1.,0.,0.));
#216=CARTESIAN_POINT('',(0.,0.,0.));
#217=CARTESIAN_POINT('',(6.95402996892394,-4.05511617482257,0.));
#218=CARTESIAN_POINT('',(-5.45931235140838,-2.58578556592386,0.));
#219=CARTESIAN_POINT('',(-0.475489228644372,5.99735837092804,0.));
#220=CARTESIAN_POINT('',(-0.475489228644372,5.99735837092804,-3.52787801641795E-016));
#221=CARTESIAN_POINT('',(-1.13841228110978E-015,5.35399999999996,-3.76370408758292));
#222=CARTESIAN_POINT('',(-3.48440006233855E-016,5.29941804705652,-3.97));
#223=CARTESIAN_POINT('',(-3.40107743213597E-016,5.31762961986117,-3.90123935184607));
#224=CARTESIAN_POINT('',(-1.14675977978053E-015,5.33582350568595,-3.83247401686179));
#225=CARTESIAN_POINT('',(-1.13841228110978E-015,5.35399999999996,-3.76370408758292));
#226=CARTESIAN_POINT('',(-3.48440006233855E-016,5.29941804705652,-3.97));
#227=CARTESIAN_POINT('',(6.95402996892394,-4.05511617482257,-3.97));
#228=CARTESIAN_POINT('',(-4.61743185509539,-2.65257755779184,-3.97));
#229=CARTESIAN_POINT('',(-4.61743185509539,-2.65257755779184,-3.97));
#230=CARTESIAN_POINT('',(-4.63325617565521,-2.6616681602959,-3.90123942484056));
#231=CARTESIAN_POINT('',(-4.64906495137649,-2.67074983275159,-3.83247408921704));
#232=CARTESIAN_POINT('',(-4.66485844290712,-2.67982272489338,-3.76370408758276));
#233=CARTESIAN_POINT('',(-4.66485844290712,-2.67982272489338,-3.76370408758276));
#234=CARTESIAN_POINT('',(-5.45931235140838,-2.58578556592386,-3.52787801641795E-016));
#235=CARTESIAN_POINT('',(6.95402996892394,-4.05511617482257,0.));
#236=CARTESIAN_POINT('',(0.475489228644374,5.99735837092804,-3.52787801641795E-016));
#237=CARTESIAN_POINT('',(0.475489228644375,5.99735837092804,0.));
#238=CARTESIAN_POINT('',(-1.49496942907666E-015,5.35399999999996,0.));
#239=CARTESIAN_POINT('',(-1.49496942907666E-015,5.35399999999996,0.));
#240=CARTESIAN_POINT('',(-6.95402996892395,-4.05511617482257,0.));
#241=CARTESIAN_POINT('',(5.45931235140837,-2.58578556592386,0.));
#242=CARTESIAN_POINT('',(5.45931235140838,-2.58578556592386,-2.64590851231346E-016));
#243=CARTESIAN_POINT('',(4.6648584429071,-2.67982272489337,-3.76370408758281));
#244=CARTESIAN_POINT('',(4.61743185509539,-2.65257755779185,-3.97));
#245=CARTESIAN_POINT('',(4.6332561756552,-2.6616681602959,-3.90123942484057));
#246=CARTESIAN_POINT('',(4.64906495137647,-2.67074983275159,-3.83247408921708));
#247=CARTESIAN_POINT('',(4.6648584429071,-2.67982272489337,-3.76370408758281));
#248=CARTESIAN_POINT('',(4.61743185509539,-2.65257755779185,-3.97));
#249=CARTESIAN_POINT('',(-6.95402996892395,-4.05511617482257,-3.97));
#250=CARTESIAN_POINT('',(-6.95402996892395,-4.05511617482257,0.));
#251=CARTESIAN_POINT('',(4.983823122764,-3.41348581719378,0.));
#252=CARTESIAN_POINT('',(4.983823122764,-3.41348581719378,0.));
#253=CARTESIAN_POINT('',(4.6648584429071,-2.67982272489337,0.));
#254=CARTESIAN_POINT('',(4.6648584429071,-2.67982272489337,0.));
#255=CARTESIAN_POINT('',(-1.19227600464133E-015,8.05,0.));
#256=CARTESIAN_POINT('',(-4.98382312276401,-3.41348581719378,0.));
#257=CARTESIAN_POINT('',(-4.98382312276401,-3.41348581719377,7.71723316091426E-016));
#258=CARTESIAN_POINT('',(-1.19227600464133E-015,8.05,-3.97));
#259=CARTESIAN_POINT('',(-1.19227600464133E-015,8.05,0.));
#260=CARTESIAN_POINT('',(-4.66485844290711,-2.67982272489337,0.));
#261=CARTESIAN_POINT('',(-4.66485844290711,-2.67982272489337,0.));
#262=CARTESIAN_POINT('',(3.47701498446197,0.649441912588696,-3.97));
#263=CARTESIAN_POINT('',(3.47701498446197,0.649441912588696,0.));
#264=MECHANICAL_DESIGN_GEOMETRIC_PRESENTATION_REPRESENTATION('',(#24),#265);
#265=(
GEOMETRIC_REPRESENTATION_CONTEXT(3)
GLOBAL_UNCERTAINTY_ASSIGNED_CONTEXT((#266))
GLOBAL_UNIT_ASSIGNED_CONTEXT((#272,#268,#267))
REPRESENTATION_CONTEXT('218','TOP_LEVEL_ASSEMBLY_PART')
);
#266=UNCERTAINTY_MEASURE_WITH_UNIT(LENGTH_MEASURE(0.0508),#272,
'DISTANCE_ACCURACY_VALUE','Maximum Tolerance applied to model');
#267=(
NAMED_UNIT(*)
SI_UNIT($,.STERADIAN.)
SOLID_ANGLE_UNIT()
);
#268=(
CONVERSION_BASED_UNIT('DEGREE',#270)
NAMED_UNIT(#269)
PLANE_ANGLE_UNIT()
);
#269=DIMENSIONAL_EXPONENTS(0.,0.,0.,0.,0.,0.,0.);
#270=PLANE_ANGLE_MEASURE_WITH_UNIT(PLANE_ANGLE_MEASURE(0.0174532925),#271);
#271=(
NAMED_UNIT(*)
PLANE_ANGLE_UNIT()
SI_UNIT($,.RADIAN.)
);
#272=(
LENGTH_UNIT()
NAMED_UNIT(*)
SI_UNIT(.MILLI.,.METRE.)
);
ENDSEC;
END-ISO-10303-21;
