ISO-10303-21;
HEADER;
/* Generated by software containing ST-Developer
 * from STEP Tools, Inc. (www.steptools.com) 
 */
/* OPTION: using custom schema-name function */

FILE_DESCRIPTION(
/* description */ (''),
/* implementation_level */ '2;1');

FILE_NAME(
/* name */ '218.19-100-E06.stp',
/* time_stamp */ '2012-07-09T14:54:26+05:00',
/* author */ (''),
/* organization */ (''),
/* preprocessor_version */ 'ST-DEVELOPER v11',
/* originating_system */ 'SIEMENS PLM Software NX 7.5',
/* authorisation */ '');

FILE_SCHEMA (('AUTOMOTIVE_DESIGN { 1 0 10303 214 1 1 1 1 }'));
ENDSEC;

DATA;
#10=SHAPE_REPRESENTATION_RELATIONSHIP('None',
'relationship between inpu3A41vh4f-None and inpu3A41vh4f-None',#22,#11);
#11=ADVANCED_BREP_SHAPE_REPRESENTATION('inpu3A41vh4f-None',(#32),#265);
#12=SHAPE_DEFINITION_REPRESENTATION(#13,#22);
#13=PRODUCT_DEFINITION_SHAPE('','',#14);
#14=PRODUCT_DEFINITION(' ','',#16,#15);
#15=PRODUCT_DEFINITION_CONTEXT('part definition',#21,'design');
#16=PRODUCT_DEFINITION_FORMATION_WITH_SPECIFIED_SOURCE(' ',' ',#18,.NOT_KNOWN.);
#17=PRODUCT_RELATED_PRODUCT_CATEGORY('part','',(#18));
#18=PRODUCT('inpu3A41vh4f','inpu3A41vh4f',' ',(#19));
#19=PRODUCT_CONTEXT(' ',#21,'mechanical');
#20=APPLICATION_PROTOCOL_DEFINITION('international standard',
'automotive_design',2001,#21);
#21=APPLICATION_CONTEXT(
'core data for automotive mechanical design processes');
#22=SHAPE_REPRESENTATION('inpu3A41vh4f-None',(#156),#265);
#23=PRESENTATION_LAYER_ASSIGNMENT('3','Layer 3',(#32));
#24=STYLED_ITEM('',(#25),#32);
#25=PRESENTATION_STYLE_ASSIGNMENT((#26));
#26=SURFACE_STYLE_USAGE(.BOTH.,#27);
#27=SURFACE_SIDE_STYLE('',(#28));
#28=SURFACE_STYLE_FILL_AREA(#29);
#29=FILL_AREA_STYLE('',(#30));
#30=FILL_AREA_STYLE_COLOUR('',#31);
#31=COLOUR_RGB('Light Gray',0.8,0.8,0.8);
#32=MANIFOLD_SOLID_BREP('',#33);
#33=CLOSED_SHELL('',(#36,#37,#38,#39,#40,#41,#42,#43));
#34=PLANE('',#175);
#35=PLANE('',#176);
#36=ADVANCED_FACE('',(#50),#44,.T.);
#37=ADVANCED_FACE('',(#51),#45,.T.);
#38=ADVANCED_FACE('',(#52),#46,.T.);
#39=ADVANCED_FACE('',(#53),#47,.T.);
#40=ADVANCED_FACE('',(#54),#48,.T.);
#41=ADVANCED_FACE('',(#55),#49,.T.);
#42=ADVANCED_FACE('',(#56),#34,.T.);
#43=ADVANCED_FACE('',(#57),#35,.F.);
#44=CONICAL_SURFACE('',#159,10.,12.);
#45=CONICAL_SURFACE('',#162,0.8,12.);
#46=CONICAL_SURFACE('',#165,10.,12.);
#47=CONICAL_SURFACE('',#168,0.800000000000003,12.);
#48=CONICAL_SURFACE('',#171,10.,12.);
#49=CONICAL_SURFACE('',#174,0.800000000000003,12.);
#50=FACE_OUTER_BOUND('',#58,.T.);
#51=FACE_OUTER_BOUND('',#59,.T.);
#52=FACE_OUTER_BOUND('',#60,.T.);
#53=FACE_OUTER_BOUND('',#61,.T.);
#54=FACE_OUTER_BOUND('',#62,.T.);
#55=FACE_OUTER_BOUND('',#63,.T.);
#56=FACE_OUTER_BOUND('',#64,.T.);
#57=FACE_OUTER_BOUND('',#65,.T.);
#58=EDGE_LOOP('',(#78,#79,#80,#81));
#59=EDGE_LOOP('',(#82,#83,#84,#85));
#60=EDGE_LOOP('',(#86,#87,#88,#89));
#61=EDGE_LOOP('',(#90,#91,#92,#93));
#62=EDGE_LOOP('',(#94,#95,#96,#97));
#63=EDGE_LOOP('',(#98,#99,#100,#101));
#64=EDGE_LOOP('',(#102,#103,#104,#105,#106,#107));
#65=EDGE_LOOP('',(#108,#109,#110,#111,#112,#113));
#66=LINE('',#229,#72);
#67=LINE('',#233,#73);
#68=LINE('',#237,#74);
#69=LINE('',#243,#75);
#70=LINE('',#249,#76);
#71=LINE('',#255,#77);
#72=VECTOR('',#181,1.);
#73=VECTOR('',#184,1.);
#74=VECTOR('',#189,1.);
#75=VECTOR('',#196,1.);
#76=VECTOR('',#203,1.);
#77=VECTOR('',#210,1.);
#78=ORIENTED_EDGE('',*,*,#126,.T.);
#79=ORIENTED_EDGE('',*,*,#127,.F.);
#80=ORIENTED_EDGE('',*,*,#128,.F.);
#81=ORIENTED_EDGE('',*,*,#129,.T.);
#82=ORIENTED_EDGE('',*,*,#130,.T.);
#83=ORIENTED_EDGE('',*,*,#131,.F.);
#84=ORIENTED_EDGE('',*,*,#132,.F.);
#85=ORIENTED_EDGE('',*,*,#127,.T.);
#86=ORIENTED_EDGE('',*,*,#133,.T.);
#87=ORIENTED_EDGE('',*,*,#134,.F.);
#88=ORIENTED_EDGE('',*,*,#135,.F.);
#89=ORIENTED_EDGE('',*,*,#131,.T.);
#90=ORIENTED_EDGE('',*,*,#136,.T.);
#91=ORIENTED_EDGE('',*,*,#137,.F.);
#92=ORIENTED_EDGE('',*,*,#138,.F.);
#93=ORIENTED_EDGE('',*,*,#134,.T.);
#94=ORIENTED_EDGE('',*,*,#139,.T.);
#95=ORIENTED_EDGE('',*,*,#140,.F.);
#96=ORIENTED_EDGE('',*,*,#141,.F.);
#97=ORIENTED_EDGE('',*,*,#137,.T.);
#98=ORIENTED_EDGE('',*,*,#142,.T.);
#99=ORIENTED_EDGE('',*,*,#129,.F.);
#100=ORIENTED_EDGE('',*,*,#143,.F.);
#101=ORIENTED_EDGE('',*,*,#140,.T.);
#102=ORIENTED_EDGE('',*,*,#128,.T.);
#103=ORIENTED_EDGE('',*,*,#132,.T.);
#104=ORIENTED_EDGE('',*,*,#135,.T.);
#105=ORIENTED_EDGE('',*,*,#138,.T.);
#106=ORIENTED_EDGE('',*,*,#141,.T.);
#107=ORIENTED_EDGE('',*,*,#143,.T.);
#108=ORIENTED_EDGE('',*,*,#126,.F.);
#109=ORIENTED_EDGE('',*,*,#142,.F.);
#110=ORIENTED_EDGE('',*,*,#139,.F.);
#111=ORIENTED_EDGE('',*,*,#136,.F.);
#112=ORIENTED_EDGE('',*,*,#133,.F.);
#113=ORIENTED_EDGE('',*,*,#130,.F.);
#114=VERTEX_POINT('',#227);
#115=VERTEX_POINT('',#228);
#116=VERTEX_POINT('',#230);
#117=VERTEX_POINT('',#232);
#118=VERTEX_POINT('',#236);
#119=VERTEX_POINT('',#238);
#120=VERTEX_POINT('',#242);
#121=VERTEX_POINT('',#244);
#122=VERTEX_POINT('',#248);
#123=VERTEX_POINT('',#250);
#124=VERTEX_POINT('',#254);
#125=VERTEX_POINT('',#256);
#126=EDGE_CURVE('',#114,#115,#144,.T.);
#127=EDGE_CURVE('',#116,#115,#66,.T.);
#128=EDGE_CURVE('',#117,#116,#145,.T.);
#129=EDGE_CURVE('',#117,#114,#67,.T.);
#130=EDGE_CURVE('',#115,#118,#146,.T.);
#131=EDGE_CURVE('',#119,#118,#68,.T.);
#132=EDGE_CURVE('',#116,#119,#147,.T.);
#133=EDGE_CURVE('',#118,#120,#148,.T.);
#134=EDGE_CURVE('',#121,#120,#69,.T.);
#135=EDGE_CURVE('',#119,#121,#149,.T.);
#136=EDGE_CURVE('',#120,#122,#150,.T.);
#137=EDGE_CURVE('',#123,#122,#70,.T.);
#138=EDGE_CURVE('',#121,#123,#151,.T.);
#139=EDGE_CURVE('',#122,#124,#152,.T.);
#140=EDGE_CURVE('',#125,#124,#71,.T.);
#141=EDGE_CURVE('',#123,#125,#153,.T.);
#142=EDGE_CURVE('',#124,#114,#154,.T.);
#143=EDGE_CURVE('',#125,#117,#155,.T.);
#144=CIRCLE('',#157,10.);
#145=CIRCLE('',#158,9.40909275855734);
#146=CIRCLE('',#160,0.8);
#147=CIRCLE('',#161,0.209092758557339);
#148=CIRCLE('',#163,10.);
#149=CIRCLE('',#164,9.40909275855733);
#150=CIRCLE('',#166,0.800000000000003);
#151=CIRCLE('',#167,0.209092758557342);
#152=CIRCLE('',#169,10.);
#153=CIRCLE('',#170,9.40909275855734);
#154=CIRCLE('',#172,0.800000000000003);
#155=CIRCLE('',#173,0.209092758557342);
#156=AXIS2_PLACEMENT_3D('',#225,#177,#178);
#157=AXIS2_PLACEMENT_3D('',#226,#179,#180);
#158=AXIS2_PLACEMENT_3D('',#231,#182,#183);
#159=AXIS2_PLACEMENT_3D('',#234,#185,#186);
#160=AXIS2_PLACEMENT_3D('',#235,#187,#188);
#161=AXIS2_PLACEMENT_3D('',#239,#190,#191);
#162=AXIS2_PLACEMENT_3D('',#240,#192,#193);
#163=AXIS2_PLACEMENT_3D('',#241,#194,#195);
#164=AXIS2_PLACEMENT_3D('',#245,#197,#198);
#165=AXIS2_PLACEMENT_3D('',#246,#199,#200);
#166=AXIS2_PLACEMENT_3D('',#247,#201,#202);
#167=AXIS2_PLACEMENT_3D('',#251,#204,#205);
#168=AXIS2_PLACEMENT_3D('',#252,#206,#207);
#169=AXIS2_PLACEMENT_3D('',#253,#208,#209);
#170=AXIS2_PLACEMENT_3D('',#257,#211,#212);
#171=AXIS2_PLACEMENT_3D('',#258,#213,#214);
#172=AXIS2_PLACEMENT_3D('',#259,#215,#216);
#173=AXIS2_PLACEMENT_3D('',#260,#217,#218);
#174=AXIS2_PLACEMENT_3D('',#261,#219,#220);
#175=AXIS2_PLACEMENT_3D('',#262,#221,#222);
#176=AXIS2_PLACEMENT_3D('',#263,#223,#224);
#177=DIRECTION('',(0.,0.,1.));
#178=DIRECTION('',(1.,0.,0.));
#179=DIRECTION('',(0.,0.,-1.));
#180=DIRECTION('',(1.,1.30104260698261E-016,0.));
#181=DIRECTION('',(-0.126203893807427,0.165226657554231,0.978147600733806));
#182=DIRECTION('',(0.,0.,-1.));
#183=DIRECTION('',(-1.,0.,0.));
#184=DIRECTION('',(-0.2060086063062,0.0280664444929622,0.978147600733806));
#185=DIRECTION('',(0.,0.,1.));
#186=DIRECTION('',(1.,1.22763824807574E-016,0.));
#187=DIRECTION('',(0.,0.,-1.));
#188=DIRECTION('',(1.,0.,0.));
#189=DIRECTION('',(0.126203893807425,0.165226657554233,0.978147600733806));
#190=DIRECTION('',(0.,0.,-1.));
#191=DIRECTION('',(-1.,0.,0.));
#192=DIRECTION('',(0.,0.,1.));
#193=DIRECTION('',(1.,1.21959465113129E-016,0.));
#194=DIRECTION('',(0.,0.,-1.));
#195=DIRECTION('',(1.,1.30104260698261E-016,0.));
#196=DIRECTION('',(0.2060086063062,0.028066444492964,0.978147600733806));
#197=DIRECTION('',(0.,0.,-1.));
#198=DIRECTION('',(-1.,0.,0.));
#199=DIRECTION('',(0.,0.,1.));
#200=DIRECTION('',(1.,1.22763824807574E-016,0.));
#201=DIRECTION('',(0.,0.,-1.));
#202=DIRECTION('',(1.,0.,0.));
#203=DIRECTION('',(0.079804712498775,-0.19198562196604,0.978147600733806));
#204=DIRECTION('',(0.,0.,-1.));
#205=DIRECTION('',(-0.999999999999999,0.,0.));
#206=DIRECTION('',(0.,0.,1.));
#207=DIRECTION('',(1.,1.21959465113129E-016,0.));
#208=DIRECTION('',(0.,0.,-1.));
#209=DIRECTION('',(1.,8.67361737988403E-017,0.));
#210=DIRECTION('',(-0.0798047124987738,-0.191985621966041,0.978147600733806));
#211=DIRECTION('',(0.,0.,-1.));
#212=DIRECTION('',(-1.,0.,0.));
#213=DIRECTION('',(0.,0.,1.));
#214=DIRECTION('',(1.,1.20815192667772E-016,0.));
#215=DIRECTION('',(0.,0.,-1.));
#216=DIRECTION('',(1.,0.,0.));
#217=DIRECTION('',(0.,0.,-1.));
#218=DIRECTION('',(-0.999999999999999,0.,0.));
#219=DIRECTION('',(0.,0.,1.));
#220=DIRECTION('',(1.,1.21959465113129E-016,0.));
#221=DIRECTION('',(0.,0.,-1.));
#222=DIRECTION('',(-1.,0.,0.));
#223=DIRECTION('',(0.,0.,-1.));
#224=DIRECTION('',(-1.,0.,0.));
#225=CARTESIAN_POINT('',(0.,0.,0.));
#226=CARTESIAN_POINT('',(5.58446626287133,-3.26720623145402,0.));
#227=CARTESIAN_POINT('',(-4.32400042776671,-1.91728481132746,0.));
#228=CARTESIAN_POINT('',(-0.485605761988818,4.67975706360469,0.));
#229=CARTESIAN_POINT('',(-0.485605761988817,4.67975706360469,1.76393900820897E-016));
#230=CARTESIAN_POINT('',(-0.126920810431975,4.21016524775177,-2.78));
#231=CARTESIAN_POINT('',(5.58446626287133,-3.26720623145402,-2.78));
#232=CARTESIAN_POINT('',(-3.73850195585757,-1.9970526455806,-2.78));
#233=CARTESIAN_POINT('',(-4.32400042776671,-1.91728481132747,0.));
#234=CARTESIAN_POINT('',(5.58446626287133,-3.26720623145402,0.));
#235=CARTESIAN_POINT('',(3.18103762676569E-016,4.04399999999999,0.));
#236=CARTESIAN_POINT('',(0.485605761988812,4.67975706360469,0.));
#237=CARTESIAN_POINT('',(0.485605761988811,4.67975706360469,3.52787801641795E-016));
#238=CARTESIAN_POINT('',(0.126920810431973,4.21016524775177,-2.78));
#239=CARTESIAN_POINT('',(3.18103762676569E-016,4.04399999999999,-2.78));
#240=CARTESIAN_POINT('',(3.18103762676569E-016,4.04399999999999,0.));
#241=CARTESIAN_POINT('',(-5.58446626287133,-3.26720623145402,0.));
#242=CARTESIAN_POINT('',(4.32400042776671,-1.91728481132745,0.));
#243=CARTESIAN_POINT('',(4.32400042776671,-1.91728481132745,-4.85083227257468E-016));
#244=CARTESIAN_POINT('',(3.73850195585757,-1.99705264558059,-2.78));
#245=CARTESIAN_POINT('',(-5.58446626287133,-3.26720623145402,-2.78));
#246=CARTESIAN_POINT('',(-5.58446626287133,-3.26720623145402,0.));
#247=CARTESIAN_POINT('',(3.53132309251567,-2.02527852493759,0.));
#248=CARTESIAN_POINT('',(3.8383946657779,-2.76399839667129,0.));
#249=CARTESIAN_POINT('',(3.8383946657779,-2.76399839667129,7.0557560328359E-016));
#250=CARTESIAN_POINT('',(3.6115811454256,-2.21835474466499,-2.78));
#251=CARTESIAN_POINT('',(3.53132309251567,-2.02527852493759,-2.78));
#252=CARTESIAN_POINT('',(3.53132309251567,-2.02527852493759,0.));
#253=CARTESIAN_POINT('',(2.30139850650384E-015,6.47,0.));
#254=CARTESIAN_POINT('',(-3.83839466577789,-2.76399839667129,0.));
#255=CARTESIAN_POINT('',(-3.8383946657779,-2.76399839667129,-1.05836340492538E-015));
#256=CARTESIAN_POINT('',(-3.61158114542559,-2.21835474466499,-2.78));
#257=CARTESIAN_POINT('',(2.30139850650384E-015,6.47,-2.78));
#258=CARTESIAN_POINT('',(2.30139850650384E-015,6.47,0.));
#259=CARTESIAN_POINT('',(-3.53132309251567,-2.02527852493759,0.));
#260=CARTESIAN_POINT('',(-3.53132309251567,-2.02527852493759,-2.78));
#261=CARTESIAN_POINT('',(-3.53132309251567,-2.02527852493759,0.));
#262=CARTESIAN_POINT('',(2.79223313143566,0.388396884272989,-2.78));
#263=CARTESIAN_POINT('',(2.79223313143566,0.388396884272989,0.));
#264=MECHANICAL_DESIGN_GEOMETRIC_PRESENTATION_REPRESENTATION('',(#24),#265);
#265=(
GEOMETRIC_REPRESENTATION_CONTEXT(3)
GLOBAL_UNCERTAINTY_ASSIGNED_CONTEXT((#266))
GLOBAL_UNIT_ASSIGNED_CONTEXT((#272,#268,#267))
REPRESENTATION_CONTEXT('218','TOP_LEVEL_ASSEMBLY_PART')
);
#266=UNCERTAINTY_MEASURE_WITH_UNIT(LENGTH_MEASURE(2.E-005),#272,
'DISTANCE_ACCURACY_VALUE','Maximum Tolerance applied to model');
#267=(
NAMED_UNIT(*)
SI_UNIT($,.STERADIAN.)
SOLID_ANGLE_UNIT()
);
#268=(
CONVERSION_BASED_UNIT('DEGREE',#270)
NAMED_UNIT(#269)
PLANE_ANGLE_UNIT()
);
#269=DIMENSIONAL_EXPONENTS(0.,0.,0.,0.,0.,0.,0.);
#270=PLANE_ANGLE_MEASURE_WITH_UNIT(PLANE_ANGLE_MEASURE(0.0174532925),#271);
#271=(
NAMED_UNIT(*)
PLANE_ANGLE_UNIT()
SI_UNIT($,.RADIAN.)
);
#272=(
LENGTH_UNIT()
NAMED_UNIT(*)
SI_UNIT(.MILLI.,.METRE.)
);
ENDSEC;
END-ISO-10303-21;
