ISO-10303-21;
HEADER;
/* Generated by software containing ST-Developer
 * from STEP Tools, Inc. (www.steptools.com) 
 */
/* OPTION: using custom schema-name function */

FILE_DESCRIPTION(
/* description */ (''),
/* implementation_level */ '2;1');

FILE_NAME(
/* name */ 'PMX08-04600-20N1.stp',
/* time_stamp */ '2018-03-16T14:54:17+05:00',
/* author */ (''),
/* organization */ (''),
/* preprocessor_version */ 'ST-DEVELOPER v16',
/* originating_system */ 'SIEMENS PLM Software NX 11.0',
/* authorisation */ '');

FILE_SCHEMA (('AUTOMOTIVE_DESIGN { 1 0 10303 214 3 1 1 1 }'));
ENDSEC;

DATA;
#10=CONSTRUCTIVE_GEOMETRY_REPRESENTATION_RELATIONSHIP(
'supplemental geometry','',#32,#11);
#11=CONSTRUCTIVE_GEOMETRY_REPRESENTATION('supplemental geometry',(#272,
#273,#274),#463);
#12=PROPERTY_DEFINITION_REPRESENTATION(#16,#14);
#13=PROPERTY_DEFINITION_REPRESENTATION(#17,#15);
#14=REPRESENTATION('',(#18),#463);
#15=REPRESENTATION('',(#19),#463);
#16=PROPERTY_DEFINITION('pmi validation property','',#23);
#17=PROPERTY_DEFINITION('pmi validation property','',#23);
#18=VALUE_REPRESENTATION_ITEM('number of annotations',COUNT_MEASURE(0.));
#19=VALUE_REPRESENTATION_ITEM('number of views',COUNT_MEASURE(0.));
#20=SHAPE_REPRESENTATION_RELATIONSHIP('None',
'relationship between PMX08-04600-20N1-None and PMX08-04600-20N1-None',
#32,#21);
#21=ADVANCED_BREP_SHAPE_REPRESENTATION('PMX08-04600-20N1-None',(#48,#49),
#463);
#22=SHAPE_DEFINITION_REPRESENTATION(#23,#32);
#23=PRODUCT_DEFINITION_SHAPE('','',#24);
#24=PRODUCT_DEFINITION(' ','',#26,#25);
#25=PRODUCT_DEFINITION_CONTEXT('part definition',#31,'design');
#26=PRODUCT_DEFINITION_FORMATION_WITH_SPECIFIED_SOURCE(' ',' ',#28,
 .NOT_KNOWN.);
#27=PRODUCT_RELATED_PRODUCT_CATEGORY('part','',(#28));
#28=PRODUCT('inpuDA90u8ht','inpuDA90u8ht',' ',(#29));
#29=PRODUCT_CONTEXT(' ',#31,'mechanical');
#30=APPLICATION_PROTOCOL_DEFINITION('international standard',
'automotive_design',2010,#31);
#31=APPLICATION_CONTEXT(
'core data for automotive mechanical design processes');
#32=SHAPE_REPRESENTATION('PMX08-04600-20N1-None',(#271),#463);
#33=TOROIDAL_SURFACE('',#302,11.561272,4.96127228293275);
#34=SURFACE_OF_REVOLUTION('',#36,#35);
#35=AXIS1_PLACEMENT('',#420,#335);
#36=B_SPLINE_CURVE_WITH_KNOTS('',3,(#416,#417,#418,#419),.UNSPECIFIED.,
 .F.,.F.,(4,4),(0.,1.),.UNSPECIFIED.);
#37=(
BOUNDED_CURVE()
B_SPLINE_CURVE(3,(#406,#407,#408,#409,#410,#411,#412),.UNSPECIFIED.,.T.,
 .F.)
B_SPLINE_CURVE_WITH_KNOTS((1,3,3,3,1),(-0.5,0.,0.5,1.,1.5),
 .UNSPECIFIED.)
CURVE()
GEOMETRIC_REPRESENTATION_ITEM()
RATIONAL_B_SPLINE_CURVE((1.,0.333333333333333,0.333333333333333,1.,0.333333333333333,
0.333333333333333,1.))
REPRESENTATION_ITEM('')
);
#38=SURFACE_STYLE_USAGE(.BOTH.,#40);
#39=SURFACE_STYLE_USAGE(.BOTH.,#41);
#40=SURFACE_SIDE_STYLE('',(#42));
#41=SURFACE_SIDE_STYLE('',(#43));
#42=SURFACE_STYLE_FILL_AREA(#44);
#43=SURFACE_STYLE_FILL_AREA(#45);
#44=FILL_AREA_STYLE('',(#46));
#45=FILL_AREA_STYLE('',(#47));
#46=FILL_AREA_STYLE_COLOUR('',#267);
#47=FILL_AREA_STYLE_COLOUR('',#267);
#48=MANIFOLD_SOLID_BREP('NOCUT',#50);
#49=MANIFOLD_SOLID_BREP('NOCUT',#51);
#50=CLOSED_SHELL('',(#95,#96,#97,#98));
#51=CLOSED_SHELL('',(#99,#100,#101,#102,#103,#104,#105,#106,#107,#108,#109,
#110,#111,#112,#113,#114));
#52=CYLINDRICAL_SURFACE('',#280,10.0000000000001);
#53=CYLINDRICAL_SURFACE('',#284,6.20701899999997);
#54=CYLINDRICAL_SURFACE('',#290,6.82499999999999);
#55=CYLINDRICAL_SURFACE('',#296,6.17499999999998);
#56=CYLINDRICAL_SURFACE('',#300,6.59999985853361);
#57=CYLINDRICAL_SURFACE('',#310,4.);
#58=CONICAL_SURFACE('',#278,8.96499999999998,45.000000000003);
#59=CONICAL_SURFACE('',#288,6.82499999999999,15.0000431707541);
#60=CONICAL_SURFACE('',#292,6.691025,15.0000431707572);
#61=CONICAL_SURFACE('',#298,6.59999999999999,60.0000874002998);
#62=CONICAL_SURFACE('',#304,10.0000000000001,45.);
#63=FACE_BOUND('',#127,.T.);
#64=FACE_BOUND('',#128,.T.);
#65=FACE_BOUND('',#129,.T.);
#66=FACE_BOUND('',#130,.T.);
#67=FACE_BOUND('',#132,.T.);
#68=FACE_BOUND('',#133,.T.);
#69=FACE_BOUND('',#134,.T.);
#70=FACE_BOUND('',#135,.T.);
#71=FACE_BOUND('',#136,.T.);
#72=FACE_BOUND('',#137,.T.);
#73=FACE_BOUND('',#138,.T.);
#74=FACE_BOUND('',#139,.T.);
#75=FACE_BOUND('',#140,.T.);
#76=FACE_BOUND('',#141,.T.);
#77=FACE_BOUND('',#142,.T.);
#78=FACE_BOUND('',#143,.T.);
#79=FACE_BOUND('',#144,.T.);
#80=FACE_BOUND('',#145,.T.);
#81=FACE_BOUND('',#146,.T.);
#82=FACE_BOUND('',#147,.T.);
#83=FACE_BOUND('',#148,.T.);
#84=FACE_BOUND('',#149,.T.);
#85=FACE_BOUND('',#150,.T.);
#86=FACE_BOUND('',#151,.T.);
#87=FACE_BOUND('',#152,.T.);
#88=FACE_BOUND('',#153,.T.);
#89=FACE_BOUND('',#154,.T.);
#90=FACE_BOUND('',#155,.T.);
#91=FACE_BOUND('',#157,.T.);
#92=FACE_BOUND('',#158,.T.);
#93=FACE_BOUND('',#160,.T.);
#94=FACE_BOUND('',#161,.T.);
#95=ADVANCED_FACE('',(#122),#115,.T.);
#96=ADVANCED_FACE('',(#63,#64),#58,.T.);
#97=ADVANCED_FACE('',(#65,#66),#52,.T.);
#98=ADVANCED_FACE('',(#123),#116,.F.);
#99=ADVANCED_FACE('',(#67,#68),#34,.F.);
#100=ADVANCED_FACE('',(#69,#70),#53,.T.);
#101=ADVANCED_FACE('',(#71,#72),#117,.T.);
#102=ADVANCED_FACE('',(#73,#74),#59,.T.);
#103=ADVANCED_FACE('',(#75,#76),#54,.T.);
#104=ADVANCED_FACE('',(#77,#78),#60,.T.);
#105=ADVANCED_FACE('',(#79,#80),#118,.T.);
#106=ADVANCED_FACE('',(#81,#82),#55,.T.);
#107=ADVANCED_FACE('',(#83,#84),#61,.T.);
#108=ADVANCED_FACE('',(#85,#86),#56,.T.);
#109=ADVANCED_FACE('',(#87,#88),#33,.F.);
#110=ADVANCED_FACE('',(#89,#90),#62,.T.);
#111=ADVANCED_FACE('',(#124),#119,.T.);
#112=ADVANCED_FACE('',(#91,#92),#120,.T.);
#113=ADVANCED_FACE('',(#125),#121,.F.);
#114=ADVANCED_FACE('',(#93,#94),#57,.F.);
#115=PLANE('',#276);
#116=PLANE('',#281);
#117=PLANE('',#286);
#118=PLANE('',#294);
#119=PLANE('',#305);
#120=PLANE('',#307);
#121=PLANE('',#309);
#122=FACE_OUTER_BOUND('',#126,.T.);
#123=FACE_OUTER_BOUND('',#131,.T.);
#124=FACE_OUTER_BOUND('',#156,.T.);
#125=FACE_OUTER_BOUND('',#159,.T.);
#126=EDGE_LOOP('',(#162));
#127=EDGE_LOOP('',(#163));
#128=EDGE_LOOP('',(#164));
#129=EDGE_LOOP('',(#165));
#130=EDGE_LOOP('',(#166));
#131=EDGE_LOOP('',(#167));
#132=EDGE_LOOP('',(#168));
#133=EDGE_LOOP('',(#169));
#134=EDGE_LOOP('',(#170));
#135=EDGE_LOOP('',(#171));
#136=EDGE_LOOP('',(#172));
#137=EDGE_LOOP('',(#173));
#138=EDGE_LOOP('',(#174));
#139=EDGE_LOOP('',(#175));
#140=EDGE_LOOP('',(#176));
#141=EDGE_LOOP('',(#177));
#142=EDGE_LOOP('',(#178));
#143=EDGE_LOOP('',(#179));
#144=EDGE_LOOP('',(#180));
#145=EDGE_LOOP('',(#181));
#146=EDGE_LOOP('',(#182));
#147=EDGE_LOOP('',(#183));
#148=EDGE_LOOP('',(#184));
#149=EDGE_LOOP('',(#185));
#150=EDGE_LOOP('',(#186));
#151=EDGE_LOOP('',(#187));
#152=EDGE_LOOP('',(#188));
#153=EDGE_LOOP('',(#189));
#154=EDGE_LOOP('',(#190));
#155=EDGE_LOOP('',(#191));
#156=EDGE_LOOP('',(#192));
#157=EDGE_LOOP('',(#193));
#158=EDGE_LOOP('',(#194));
#159=EDGE_LOOP('',(#195));
#160=EDGE_LOOP('',(#196));
#161=EDGE_LOOP('',(#197));
#162=ORIENTED_EDGE('',*,*,#216,.T.);
#163=ORIENTED_EDGE('',*,*,#217,.T.);
#164=ORIENTED_EDGE('',*,*,#216,.F.);
#165=ORIENTED_EDGE('',*,*,#218,.F.);
#166=ORIENTED_EDGE('',*,*,#217,.F.);
#167=ORIENTED_EDGE('',*,*,#218,.T.);
#168=ORIENTED_EDGE('',*,*,#219,.T.);
#169=ORIENTED_EDGE('',*,*,#220,.F.);
#170=ORIENTED_EDGE('',*,*,#220,.T.);
#171=ORIENTED_EDGE('',*,*,#221,.F.);
#172=ORIENTED_EDGE('',*,*,#221,.T.);
#173=ORIENTED_EDGE('',*,*,#222,.F.);
#174=ORIENTED_EDGE('',*,*,#222,.T.);
#175=ORIENTED_EDGE('',*,*,#223,.F.);
#176=ORIENTED_EDGE('',*,*,#223,.T.);
#177=ORIENTED_EDGE('',*,*,#224,.F.);
#178=ORIENTED_EDGE('',*,*,#224,.T.);
#179=ORIENTED_EDGE('',*,*,#225,.F.);
#180=ORIENTED_EDGE('',*,*,#225,.T.);
#181=ORIENTED_EDGE('',*,*,#226,.F.);
#182=ORIENTED_EDGE('',*,*,#226,.T.);
#183=ORIENTED_EDGE('',*,*,#227,.F.);
#184=ORIENTED_EDGE('',*,*,#227,.T.);
#185=ORIENTED_EDGE('',*,*,#228,.F.);
#186=ORIENTED_EDGE('',*,*,#228,.T.);
#187=ORIENTED_EDGE('',*,*,#229,.F.);
#188=ORIENTED_EDGE('',*,*,#229,.T.);
#189=ORIENTED_EDGE('',*,*,#230,.F.);
#190=ORIENTED_EDGE('',*,*,#230,.T.);
#191=ORIENTED_EDGE('',*,*,#231,.F.);
#192=ORIENTED_EDGE('',*,*,#231,.T.);
#193=ORIENTED_EDGE('',*,*,#232,.T.);
#194=ORIENTED_EDGE('',*,*,#219,.F.);
#195=ORIENTED_EDGE('',*,*,#233,.T.);
#196=ORIENTED_EDGE('',*,*,#233,.F.);
#197=ORIENTED_EDGE('',*,*,#232,.F.);
#198=VERTEX_POINT('',#397);
#199=VERTEX_POINT('',#400);
#200=VERTEX_POINT('',#403);
#201=VERTEX_POINT('',#413);
#202=VERTEX_POINT('',#415);
#203=VERTEX_POINT('',#422);
#204=VERTEX_POINT('',#425);
#205=VERTEX_POINT('',#428);
#206=VERTEX_POINT('',#431);
#207=VERTEX_POINT('',#434);
#208=VERTEX_POINT('',#437);
#209=VERTEX_POINT('',#440);
#210=VERTEX_POINT('',#443);
#211=VERTEX_POINT('',#446);
#212=VERTEX_POINT('',#449);
#213=VERTEX_POINT('',#452);
#214=VERTEX_POINT('',#456);
#215=VERTEX_POINT('',#459);
#216=EDGE_CURVE('',#198,#198,#234,.T.);
#217=EDGE_CURVE('',#199,#199,#235,.T.);
#218=EDGE_CURVE('',#200,#200,#236,.T.);
#219=EDGE_CURVE('',#201,#201,#37,.T.);
#220=EDGE_CURVE('',#202,#202,#237,.T.);
#221=EDGE_CURVE('',#203,#203,#238,.T.);
#222=EDGE_CURVE('',#204,#204,#239,.T.);
#223=EDGE_CURVE('',#205,#205,#240,.T.);
#224=EDGE_CURVE('',#206,#206,#241,.T.);
#225=EDGE_CURVE('',#207,#207,#242,.T.);
#226=EDGE_CURVE('',#208,#208,#243,.T.);
#227=EDGE_CURVE('',#209,#209,#244,.T.);
#228=EDGE_CURVE('',#210,#210,#245,.T.);
#229=EDGE_CURVE('',#211,#211,#246,.T.);
#230=EDGE_CURVE('',#212,#212,#247,.T.);
#231=EDGE_CURVE('',#213,#213,#248,.T.);
#232=EDGE_CURVE('',#214,#214,#249,.T.);
#233=EDGE_CURVE('',#215,#215,#250,.T.);
#234=CIRCLE('',#275,8.96499999999998);
#235=CIRCLE('',#277,10.0000000000001);
#236=CIRCLE('',#279,10.0000000000001);
#237=CIRCLE('',#282,6.20701899999997);
#238=CIRCLE('',#283,6.20701899999997);
#239=CIRCLE('',#285,6.691025);
#240=CIRCLE('',#287,6.82499999999999);
#241=CIRCLE('',#289,6.82499999999999);
#242=CIRCLE('',#291,6.691025);
#243=CIRCLE('',#293,6.17499999999998);
#244=CIRCLE('',#295,6.17499999999998);
#245=CIRCLE('',#297,6.59999999999999);
#246=CIRCLE('',#299,6.59999971706722);
#247=CIRCLE('',#301,8.05312300000009);
#248=CIRCLE('',#303,10.0000000000001);
#249=CIRCLE('',#306,4.);
#250=CIRCLE('',#308,4.);
#251=PRESENTATION_LAYER_ASSIGNMENT('1','Layer 1',(#272,#273,#274,#48));
#252=PRESENTATION_LAYER_ASSIGNMENT('2','Layer 2',(#49));
#253=STYLED_ITEM('',(#258),#272);
#254=STYLED_ITEM('',(#259),#273);
#255=STYLED_ITEM('',(#260),#274);
#256=STYLED_ITEM('',(#261),#48);
#257=STYLED_ITEM('',(#262),#49);
#258=PRESENTATION_STYLE_ASSIGNMENT((#263));
#259=PRESENTATION_STYLE_ASSIGNMENT((#264));
#260=PRESENTATION_STYLE_ASSIGNMENT((#265));
#261=PRESENTATION_STYLE_ASSIGNMENT((#38));
#262=PRESENTATION_STYLE_ASSIGNMENT((#39));
#263=CURVE_STYLE('',#268,POSITIVE_LENGTH_MEASURE(0.18),#266);
#264=CURVE_STYLE('',#269,POSITIVE_LENGTH_MEASURE(0.18),#266);
#265=CURVE_STYLE('',#270,POSITIVE_LENGTH_MEASURE(0.18),#266);
#266=COLOUR_RGB('Strong Stone',0.576470588235294,0.54508278019379,0.392156862745098);
#267=COLOUR_RGB('Medium Gray',0.490196078431373,0.490196078431373,0.490196078431373);
#268=DRAUGHTING_PRE_DEFINED_CURVE_FONT('continuous');
#269=DRAUGHTING_PRE_DEFINED_CURVE_FONT('continuous');
#270=DRAUGHTING_PRE_DEFINED_CURVE_FONT('continuous');
#271=AXIS2_PLACEMENT_3D('',#392,#311,#312);
#272=AXIS2_PLACEMENT_3D('MCS',#393,#313,#314);
#273=AXIS2_PLACEMENT_3D('PCS',#394,#315,#316);
#274=AXIS2_PLACEMENT_3D('CSW',#395,#317,#318);
#275=AXIS2_PLACEMENT_3D('',#396,#319,#320);
#276=AXIS2_PLACEMENT_3D('',#398,#321,#322);
#277=AXIS2_PLACEMENT_3D('',#399,#323,#324);
#278=AXIS2_PLACEMENT_3D('',#401,#325,#326);
#279=AXIS2_PLACEMENT_3D('',#402,#327,#328);
#280=AXIS2_PLACEMENT_3D('',#404,#329,#330);
#281=AXIS2_PLACEMENT_3D('',#405,#331,#332);
#282=AXIS2_PLACEMENT_3D('',#414,#333,#334);
#283=AXIS2_PLACEMENT_3D('',#421,#336,#337);
#284=AXIS2_PLACEMENT_3D('',#423,#338,#339);
#285=AXIS2_PLACEMENT_3D('',#424,#340,#341);
#286=AXIS2_PLACEMENT_3D('',#426,#342,#343);
#287=AXIS2_PLACEMENT_3D('',#427,#344,#345);
#288=AXIS2_PLACEMENT_3D('',#429,#346,#347);
#289=AXIS2_PLACEMENT_3D('',#430,#348,#349);
#290=AXIS2_PLACEMENT_3D('',#432,#350,#351);
#291=AXIS2_PLACEMENT_3D('',#433,#352,#353);
#292=AXIS2_PLACEMENT_3D('',#435,#354,#355);
#293=AXIS2_PLACEMENT_3D('',#436,#356,#357);
#294=AXIS2_PLACEMENT_3D('',#438,#358,#359);
#295=AXIS2_PLACEMENT_3D('',#439,#360,#361);
#296=AXIS2_PLACEMENT_3D('',#441,#362,#363);
#297=AXIS2_PLACEMENT_3D('',#442,#364,#365);
#298=AXIS2_PLACEMENT_3D('',#444,#366,#367);
#299=AXIS2_PLACEMENT_3D('',#445,#368,#369);
#300=AXIS2_PLACEMENT_3D('',#447,#370,#371);
#301=AXIS2_PLACEMENT_3D('',#448,#372,#373);
#302=AXIS2_PLACEMENT_3D('',#450,#374,#375);
#303=AXIS2_PLACEMENT_3D('',#451,#376,#377);
#304=AXIS2_PLACEMENT_3D('',#453,#378,#379);
#305=AXIS2_PLACEMENT_3D('',#454,#380,#381);
#306=AXIS2_PLACEMENT_3D('',#455,#382,#383);
#307=AXIS2_PLACEMENT_3D('',#457,#384,#385);
#308=AXIS2_PLACEMENT_3D('',#458,#386,#387);
#309=AXIS2_PLACEMENT_3D('',#460,#388,#389);
#310=AXIS2_PLACEMENT_3D('',#461,#390,#391);
#311=DIRECTION('',(0.,0.,1.));
#312=DIRECTION('',(1.,0.,0.));
#313=DIRECTION('',(0.,0.,1.));
#314=DIRECTION('',(1.,0.,0.));
#315=DIRECTION('',(0.,0.,1.));
#316=DIRECTION('',(1.,0.,0.));
#317=DIRECTION('',(0.,0.,1.));
#318=DIRECTION('',(1.,0.,0.));
#319=DIRECTION('',(0.,0.,1.));
#320=DIRECTION('',(1.,0.,0.));
#321=DIRECTION('',(0.,0.,1.));
#322=DIRECTION('',(1.,0.,0.));
#323=DIRECTION('',(0.,0.,1.));
#324=DIRECTION('',(1.,0.,0.));
#325=DIRECTION('',(0.,0.,-1.));
#326=DIRECTION('',(-1.,0.,4.12634367133043E-17));
#327=DIRECTION('',(0.,0.,-1.));
#328=DIRECTION('',(1.,0.,0.));
#329=DIRECTION('',(0.,0.,1.));
#330=DIRECTION('',(1.,0.,0.));
#331=DIRECTION('',(0.,0.,1.));
#332=DIRECTION('',(1.,0.,0.));
#333=DIRECTION('',(0.,0.,1.));
#334=DIRECTION('',(1.,0.,0.));
#335=DIRECTION('',(0.,0.,1.));
#336=DIRECTION('',(0.,0.,1.));
#337=DIRECTION('',(1.,0.,0.));
#338=DIRECTION('',(0.,0.,1.));
#339=DIRECTION('',(1.,0.,0.));
#340=DIRECTION('',(0.,0.,1.));
#341=DIRECTION('',(1.,0.,0.));
#342=DIRECTION('',(0.,0.,-1.));
#343=DIRECTION('',(-1.,0.,0.));
#344=DIRECTION('',(0.,0.,1.));
#345=DIRECTION('',(1.,0.,0.));
#346=DIRECTION('',(0.,0.,1.));
#347=DIRECTION('',(1.,0.,1.01012012066732E-16));
#348=DIRECTION('',(0.,0.,1.));
#349=DIRECTION('',(1.,0.,0.));
#350=DIRECTION('',(0.,0.,1.));
#351=DIRECTION('',(1.,0.,0.));
#352=DIRECTION('',(0.,0.,1.));
#353=DIRECTION('',(1.,0.,0.));
#354=DIRECTION('',(0.,0.,-1.));
#355=DIRECTION('',(-1.,0.,1.51591931407355E-16));
#356=DIRECTION('',(0.,0.,1.));
#357=DIRECTION('',(1.,0.,0.));
#358=DIRECTION('',(0.,0.,1.));
#359=DIRECTION('',(1.,0.,0.));
#360=DIRECTION('',(0.,0.,1.));
#361=DIRECTION('',(1.,0.,0.));
#362=DIRECTION('',(0.,0.,1.));
#363=DIRECTION('',(1.,0.,0.));
#364=DIRECTION('',(0.,0.,1.));
#365=DIRECTION('',(1.,0.,0.));
#366=DIRECTION('',(0.,0.,1.));
#367=DIRECTION('',(1.,0.,-3.19276051158027E-17));
#368=DIRECTION('',(0.,0.,1.));
#369=DIRECTION('',(1.,0.,0.));
#370=DIRECTION('',(0.,0.,1.));
#371=DIRECTION('',(1.,0.,0.));
#372=DIRECTION('',(0.,0.,1.));
#373=DIRECTION('',(1.,0.,0.));
#374=DIRECTION('',(0.,0.,1.));
#375=DIRECTION('',(1.,0.,0.));
#376=DIRECTION('',(0.,0.,1.));
#377=DIRECTION('',(1.,0.,0.));
#378=DIRECTION('',(0.,0.,1.));
#379=DIRECTION('',(1.,0.,0.));
#380=DIRECTION('',(0.,0.,1.));
#381=DIRECTION('',(1.,0.,0.));
#382=DIRECTION('',(0.,0.,1.));
#383=DIRECTION('',(1.,0.,0.));
#384=DIRECTION('',(0.,0.,-1.));
#385=DIRECTION('',(-1.,0.,0.));
#386=DIRECTION('',(0.,0.,-1.));
#387=DIRECTION('',(1.,0.,0.));
#388=DIRECTION('',(0.,0.,1.));
#389=DIRECTION('',(1.,0.,0.));
#390=DIRECTION('',(0.,0.,1.));
#391=DIRECTION('',(1.,0.,0.));
#392=CARTESIAN_POINT('',(0.,0.,0.));
#393=CARTESIAN_POINT('',(0.,0.,0.));
#394=CARTESIAN_POINT('',(0.,0.,50.));
#395=CARTESIAN_POINT('',(0.,0.,-39.000000178));
#396=CARTESIAN_POINT('',(0.,0.,50.));
#397=CARTESIAN_POINT('',(8.96499999999998,0.,50.));
#398=CARTESIAN_POINT('',(0.,0.,50.));
#399=CARTESIAN_POINT('',(0.,0.,48.965));
#400=CARTESIAN_POINT('',(10.0000000000001,0.,48.965));
#401=CARTESIAN_POINT('',(0.,0.,50.));
#402=CARTESIAN_POINT('',(0.,0.,0.));
#403=CARTESIAN_POINT('',(10.0000000000001,0.,0.));
#404=CARTESIAN_POINT('',(0.,0.,57.0482351456711));
#405=CARTESIAN_POINT('',(0.,0.,0.));
#406=CARTESIAN_POINT('',(-6.05308093826528,0.,-39.000000178079));
#407=CARTESIAN_POINT('',(-6.05308093826528,-12.1061618765306,-39.000000178079));
#408=CARTESIAN_POINT('',(6.05308093826528,-12.1061618765306,-39.000000178079));
#409=CARTESIAN_POINT('',(6.05308093826528,-1.11193292940397E-15,-39.000000178079));
#410=CARTESIAN_POINT('',(6.05308093826528,12.1061618765306,-39.000000178079));
#411=CARTESIAN_POINT('',(-6.05308093826528,12.1061618765306,-39.000000178079));
#412=CARTESIAN_POINT('',(-6.05308093826528,0.,-39.000000178079));
#413=CARTESIAN_POINT('',(-6.05308093826528,0.,-39.000000178079));
#414=CARTESIAN_POINT('',(0.,0.,-38.716507));
#415=CARTESIAN_POINT('',(6.20701899999997,0.,-38.716507));
#416=CARTESIAN_POINT('',(0.,6.20701922700059,-38.716506529025));
#417=CARTESIAN_POINT('',(0.,6.15539796147689,-38.812205174941));
#418=CARTESIAN_POINT('',(0.,6.1041021183633,-38.90679143915));
#419=CARTESIAN_POINT('',(0.,6.05308093826528,-39.000000178079));
#420=CARTESIAN_POINT('',(0.,0.,156.048235145671));
#421=CARTESIAN_POINT('',(0.,0.,-36.9));
#422=CARTESIAN_POINT('',(6.20701899999997,0.,-36.9));
#423=CARTESIAN_POINT('',(0.,0.,156.048235145671));
#424=CARTESIAN_POINT('',(0.,0.,-36.9));
#425=CARTESIAN_POINT('',(6.691025,0.,-36.9));
#426=CARTESIAN_POINT('',(0.,6.691025,-36.9));
#427=CARTESIAN_POINT('',(0.,0.,-36.4));
#428=CARTESIAN_POINT('',(6.82499999999999,0.,-36.4));
#429=CARTESIAN_POINT('',(0.,0.,-36.4));
#430=CARTESIAN_POINT('',(0.,0.,-6.9));
#431=CARTESIAN_POINT('',(6.82499999999999,0.,-6.9));
#432=CARTESIAN_POINT('',(0.,0.,156.048235145671));
#433=CARTESIAN_POINT('',(0.,0.,-6.4));
#434=CARTESIAN_POINT('',(6.691025,0.,-6.4));
#435=CARTESIAN_POINT('',(0.,0.,-6.4));
#436=CARTESIAN_POINT('',(0.,0.,-6.400002));
#437=CARTESIAN_POINT('',(6.17499999999998,0.,-6.400002));
#438=CARTESIAN_POINT('',(0.,6.17499999999998,-6.400001));
#439=CARTESIAN_POINT('',(0.,0.,-6.35517699999999));
#440=CARTESIAN_POINT('',(6.17499999999998,0.,-6.35517699999999));
#441=CARTESIAN_POINT('',(0.,0.,156.048235145671));
#442=CARTESIAN_POINT('',(0.,0.,-6.109804));
#443=CARTESIAN_POINT('',(6.59999999999999,0.,-6.109804));
#444=CARTESIAN_POINT('',(0.,0.,-6.109804));
#445=CARTESIAN_POINT('',(0.,0.,-5.45502599999997));
#446=CARTESIAN_POINT('',(6.59999971706722,0.,-5.45502599999997));
#447=CARTESIAN_POINT('',(0.,0.,57.0482351456711));
#448=CARTESIAN_POINT('',(0.,0.,-1.946877));
#449=CARTESIAN_POINT('',(8.05312300000009,0.,-1.946877));
#450=CARTESIAN_POINT('',(0.,0.,-5.45502599999998));
#451=CARTESIAN_POINT('',(0.,0.,0.));
#452=CARTESIAN_POINT('',(10.0000000000001,0.,0.));
#453=CARTESIAN_POINT('',(0.,0.,0.));
#454=CARTESIAN_POINT('',(0.,0.,0.));
#455=CARTESIAN_POINT('',(0.,0.,-39.000000178));
#456=CARTESIAN_POINT('',(4.,0.,-39.000000178));
#457=CARTESIAN_POINT('',(0.,0.,-39.000000178079));
#458=CARTESIAN_POINT('',(0.,0.,-25.000000178));
#459=CARTESIAN_POINT('',(4.,0.,-25.000000178));
#460=CARTESIAN_POINT('',(0.,0.,-25.000000178));
#461=CARTESIAN_POINT('',(0.,0.,-39.000000178));
#462=MECHANICAL_DESIGN_GEOMETRIC_PRESENTATION_REPRESENTATION('',(#253,#254,
#255,#256,#257),#463);
#463=(
GEOMETRIC_REPRESENTATION_CONTEXT(3)
GLOBAL_UNCERTAINTY_ASSIGNED_CONTEXT((#464))
GLOBAL_UNIT_ASSIGNED_CONTEXT((#470,#466,#465))
REPRESENTATION_CONTEXT('PMX08-04600-20N1','TOP_LEVEL_ASSEMBLY_PART')
);
#464=UNCERTAINTY_MEASURE_WITH_UNIT(LENGTH_MEASURE(2.E-5),#470,
'DISTANCE_ACCURACY_VALUE','Maximum Tolerance applied to model');
#465=(
NAMED_UNIT(*)
SI_UNIT($,.STERADIAN.)
SOLID_ANGLE_UNIT()
);
#466=(
CONVERSION_BASED_UNIT('DEGREE',#468)
NAMED_UNIT(#467)
PLANE_ANGLE_UNIT()
);
#467=DIMENSIONAL_EXPONENTS(0.,0.,0.,0.,0.,0.,0.);
#468=PLANE_ANGLE_MEASURE_WITH_UNIT(PLANE_ANGLE_MEASURE(0.0174532925),#469);
#469=(
NAMED_UNIT(*)
PLANE_ANGLE_UNIT()
SI_UNIT($,.RADIAN.)
);
#470=(
LENGTH_UNIT()
NAMED_UNIT(*)
SI_UNIT(.MILLI.,.METRE.)
);
ENDSEC;
END-ISO-10303-21;
