ISO-10303-21;
HEADER;
/* Generated by software containing ST-Developer
 * from STEP Tools, Inc. (www.steptools.com) 
 */
/* OPTION: using custom schema-name function */

FILE_DESCRIPTION(
/* description */ (''),
/* implementation_level */ '2;1');

FILE_NAME(
/* name */ 'PMX06T-AD-05700-16N1.stp',
/* time_stamp */ '2018-03-16T14:54:18+05:00',
/* author */ (''),
/* organization */ (''),
/* preprocessor_version */ 'ST-DEVELOPER v16',
/* originating_system */ 'SIEMENS PLM Software NX 11.0',
/* authorisation */ '');

FILE_SCHEMA (('AUTOMOTIVE_DESIGN { 1 0 10303 214 3 1 1 1 }'));
ENDSEC;

DATA;
#10=CONSTRUCTIVE_GEOMETRY_REPRESENTATION_RELATIONSHIP(
'supplemental geometry','',#32,#11);
#11=CONSTRUCTIVE_GEOMETRY_REPRESENTATION('supplemental geometry',(#303,
#304,#305),#516);
#12=PROPERTY_DEFINITION_REPRESENTATION(#16,#14);
#13=PROPERTY_DEFINITION_REPRESENTATION(#17,#15);
#14=REPRESENTATION('',(#18),#516);
#15=REPRESENTATION('',(#19),#516);
#16=PROPERTY_DEFINITION('pmi validation property','',#23);
#17=PROPERTY_DEFINITION('pmi validation property','',#23);
#18=VALUE_REPRESENTATION_ITEM('number of annotations',COUNT_MEASURE(0.));
#19=VALUE_REPRESENTATION_ITEM('number of views',COUNT_MEASURE(0.));
#20=SHAPE_REPRESENTATION_RELATIONSHIP('None',
'relationship between PMX06T-AD-05700-16N1-None and PMX06T-AD-05700-16
N1-None',#32,#21);
#21=ADVANCED_BREP_SHAPE_REPRESENTATION('PMX06T-AD-05700-16N1-None',(#43,
#44),#516);
#22=SHAPE_DEFINITION_REPRESENTATION(#23,#32);
#23=PRODUCT_DEFINITION_SHAPE('','',#24);
#24=PRODUCT_DEFINITION(' ','',#26,#25);
#25=PRODUCT_DEFINITION_CONTEXT('part definition',#31,'design');
#26=PRODUCT_DEFINITION_FORMATION_WITH_SPECIFIED_SOURCE(' ',' ',#28,
 .NOT_KNOWN.);
#27=PRODUCT_RELATED_PRODUCT_CATEGORY('part','',(#28));
#28=PRODUCT('PMX06T-AD-05700-16N1','PMX06T-AD-05700-16N1',' ',(#29));
#29=PRODUCT_CONTEXT(' ',#31,'mechanical');
#30=APPLICATION_PROTOCOL_DEFINITION('international standard',
'automotive_design',2010,#31);
#31=APPLICATION_CONTEXT(
'core data for automotive mechanical design processes');
#32=SHAPE_REPRESENTATION('PMX06T-AD-05700-16N1-None',(#302),#516);
#33=SURFACE_STYLE_USAGE(.BOTH.,#35);
#34=SURFACE_STYLE_USAGE(.BOTH.,#36);
#35=SURFACE_SIDE_STYLE('',(#37));
#36=SURFACE_SIDE_STYLE('',(#38));
#37=SURFACE_STYLE_FILL_AREA(#39);
#38=SURFACE_STYLE_FILL_AREA(#40);
#39=FILL_AREA_STYLE('',(#41));
#40=FILL_AREA_STYLE('',(#42));
#41=FILL_AREA_STYLE_COLOUR('',#298);
#42=FILL_AREA_STYLE_COLOUR('',#298);
#43=MANIFOLD_SOLID_BREP('NOCUT',#45);
#44=MANIFOLD_SOLID_BREP('NOCUT',#46);
#45=CLOSED_SHELL('',(#100,#101,#102,#103,#104,#105,#106,#107,#108,#109,
#110,#111,#112,#113,#114,#115,#116,#117,#118));
#46=CLOSED_SHELL('',(#119,#120,#121,#122));
#47=CONICAL_SURFACE('',#314,8.99999999999998,60.0000000000021);
#48=CONICAL_SURFACE('',#318,6.9792740578363,29.9999999999993);
#49=CONICAL_SURFACE('',#324,4.44999999999998,59.9999999999894);
#50=CONICAL_SURFACE('',#330,4.89999999999999,14.9999999999907);
#51=CONICAL_SURFACE('',#334,4.76602540378451,14.9999999999907);
#52=CONICAL_SURFACE('',#339,4.49999999999992,45.);
#53=CONICAL_SURFACE('',#348,7.99999999999998,29.9999999999985);
#54=CYLINDRICAL_SURFACE('',#309,7.4999999999999);
#55=CYLINDRICAL_SURFACE('',#316,8.99999999999998);
#56=CYLINDRICAL_SURFACE('',#322,4.74999999999989);
#57=CYLINDRICAL_SURFACE('',#326,4.44999999999998);
#58=CYLINDRICAL_SURFACE('',#332,4.89999999999999);
#59=CYLINDRICAL_SURFACE('',#338,4.49999999999992);
#60=CYLINDRICAL_SURFACE('',#342,3.);
#61=CYLINDRICAL_SURFACE('',#349,7.99999999999998);
#62=FACE_BOUND('',#136,.T.);
#63=FACE_BOUND('',#137,.T.);
#64=FACE_BOUND('',#138,.T.);
#65=FACE_BOUND('',#139,.T.);
#66=FACE_BOUND('',#140,.T.);
#67=FACE_BOUND('',#141,.T.);
#68=FACE_BOUND('',#142,.T.);
#69=FACE_BOUND('',#143,.T.);
#70=FACE_BOUND('',#144,.T.);
#71=FACE_BOUND('',#145,.T.);
#72=FACE_BOUND('',#146,.T.);
#73=FACE_BOUND('',#147,.T.);
#74=FACE_BOUND('',#148,.T.);
#75=FACE_BOUND('',#149,.T.);
#76=FACE_BOUND('',#150,.T.);
#77=FACE_BOUND('',#151,.T.);
#78=FACE_BOUND('',#152,.T.);
#79=FACE_BOUND('',#153,.T.);
#80=FACE_BOUND('',#154,.T.);
#81=FACE_BOUND('',#155,.T.);
#82=FACE_BOUND('',#156,.T.);
#83=FACE_BOUND('',#157,.T.);
#84=FACE_BOUND('',#158,.T.);
#85=FACE_BOUND('',#159,.T.);
#86=FACE_BOUND('',#160,.T.);
#87=FACE_BOUND('',#161,.T.);
#88=FACE_BOUND('',#162,.T.);
#89=FACE_BOUND('',#163,.T.);
#90=FACE_BOUND('',#164,.T.);
#91=FACE_BOUND('',#165,.T.);
#92=FACE_BOUND('',#166,.T.);
#93=FACE_BOUND('',#167,.T.);
#94=FACE_BOUND('',#169,.T.);
#95=FACE_BOUND('',#170,.T.);
#96=FACE_BOUND('',#173,.T.);
#97=FACE_BOUND('',#174,.T.);
#98=FACE_BOUND('',#175,.T.);
#99=FACE_BOUND('',#176,.T.);
#100=ADVANCED_FACE('',(#131),#123,.F.);
#101=ADVANCED_FACE('',(#62,#63),#54,.T.);
#102=ADVANCED_FACE('',(#64,#65),#124,.F.);
#103=ADVANCED_FACE('',(#66,#67),#47,.T.);
#104=ADVANCED_FACE('',(#68,#69),#55,.T.);
#105=ADVANCED_FACE('',(#70,#71),#48,.T.);
#106=ADVANCED_FACE('',(#72,#73),#125,.F.);
#107=ADVANCED_FACE('',(#74,#75),#56,.T.);
#108=ADVANCED_FACE('',(#76,#77),#49,.T.);
#109=ADVANCED_FACE('',(#78,#79),#57,.T.);
#110=ADVANCED_FACE('',(#80,#81),#126,.F.);
#111=ADVANCED_FACE('',(#82,#83),#50,.T.);
#112=ADVANCED_FACE('',(#84,#85),#58,.T.);
#113=ADVANCED_FACE('',(#86,#87),#51,.T.);
#114=ADVANCED_FACE('',(#88,#89),#127,.F.);
#115=ADVANCED_FACE('',(#90,#91),#59,.T.);
#116=ADVANCED_FACE('',(#92,#93),#52,.T.);
#117=ADVANCED_FACE('',(#132),#128,.F.);
#118=ADVANCED_FACE('',(#94,#95),#60,.F.);
#119=ADVANCED_FACE('',(#133),#129,.T.);
#120=ADVANCED_FACE('',(#134),#130,.F.);
#121=ADVANCED_FACE('',(#96,#97),#53,.T.);
#122=ADVANCED_FACE('',(#98,#99),#61,.T.);
#123=PLANE('',#307);
#124=PLANE('',#312);
#125=PLANE('',#320);
#126=PLANE('',#328);
#127=PLANE('',#336);
#128=PLANE('',#341);
#129=PLANE('',#344);
#130=PLANE('',#346);
#131=FACE_OUTER_BOUND('',#135,.T.);
#132=FACE_OUTER_BOUND('',#168,.T.);
#133=FACE_OUTER_BOUND('',#171,.T.);
#134=FACE_OUTER_BOUND('',#172,.T.);
#135=EDGE_LOOP('',(#177));
#136=EDGE_LOOP('',(#178));
#137=EDGE_LOOP('',(#179));
#138=EDGE_LOOP('',(#180));
#139=EDGE_LOOP('',(#181));
#140=EDGE_LOOP('',(#182));
#141=EDGE_LOOP('',(#183));
#142=EDGE_LOOP('',(#184));
#143=EDGE_LOOP('',(#185));
#144=EDGE_LOOP('',(#186));
#145=EDGE_LOOP('',(#187));
#146=EDGE_LOOP('',(#188));
#147=EDGE_LOOP('',(#189));
#148=EDGE_LOOP('',(#190));
#149=EDGE_LOOP('',(#191));
#150=EDGE_LOOP('',(#192));
#151=EDGE_LOOP('',(#193));
#152=EDGE_LOOP('',(#194));
#153=EDGE_LOOP('',(#195));
#154=EDGE_LOOP('',(#196));
#155=EDGE_LOOP('',(#197));
#156=EDGE_LOOP('',(#198));
#157=EDGE_LOOP('',(#199));
#158=EDGE_LOOP('',(#200));
#159=EDGE_LOOP('',(#201));
#160=EDGE_LOOP('',(#202));
#161=EDGE_LOOP('',(#203));
#162=EDGE_LOOP('',(#204));
#163=EDGE_LOOP('',(#205));
#164=EDGE_LOOP('',(#206));
#165=EDGE_LOOP('',(#207));
#166=EDGE_LOOP('',(#208));
#167=EDGE_LOOP('',(#209));
#168=EDGE_LOOP('',(#210));
#169=EDGE_LOOP('',(#211));
#170=EDGE_LOOP('',(#212));
#171=EDGE_LOOP('',(#213));
#172=EDGE_LOOP('',(#214));
#173=EDGE_LOOP('',(#215));
#174=EDGE_LOOP('',(#216));
#175=EDGE_LOOP('',(#217));
#176=EDGE_LOOP('',(#218));
#177=ORIENTED_EDGE('',*,*,#240,.F.);
#178=ORIENTED_EDGE('',*,*,#241,.T.);
#179=ORIENTED_EDGE('',*,*,#240,.T.);
#180=ORIENTED_EDGE('',*,*,#242,.T.);
#181=ORIENTED_EDGE('',*,*,#243,.T.);
#182=ORIENTED_EDGE('',*,*,#241,.F.);
#183=ORIENTED_EDGE('',*,*,#244,.T.);
#184=ORIENTED_EDGE('',*,*,#244,.F.);
#185=ORIENTED_EDGE('',*,*,#245,.T.);
#186=ORIENTED_EDGE('',*,*,#245,.F.);
#187=ORIENTED_EDGE('',*,*,#246,.T.);
#188=ORIENTED_EDGE('',*,*,#246,.F.);
#189=ORIENTED_EDGE('',*,*,#247,.T.);
#190=ORIENTED_EDGE('',*,*,#247,.F.);
#191=ORIENTED_EDGE('',*,*,#248,.T.);
#192=ORIENTED_EDGE('',*,*,#248,.F.);
#193=ORIENTED_EDGE('',*,*,#249,.T.);
#194=ORIENTED_EDGE('',*,*,#249,.F.);
#195=ORIENTED_EDGE('',*,*,#250,.T.);
#196=ORIENTED_EDGE('',*,*,#250,.F.);
#197=ORIENTED_EDGE('',*,*,#251,.T.);
#198=ORIENTED_EDGE('',*,*,#251,.F.);
#199=ORIENTED_EDGE('',*,*,#252,.T.);
#200=ORIENTED_EDGE('',*,*,#252,.F.);
#201=ORIENTED_EDGE('',*,*,#253,.T.);
#202=ORIENTED_EDGE('',*,*,#253,.F.);
#203=ORIENTED_EDGE('',*,*,#254,.T.);
#204=ORIENTED_EDGE('',*,*,#254,.F.);
#205=ORIENTED_EDGE('',*,*,#255,.T.);
#206=ORIENTED_EDGE('',*,*,#256,.T.);
#207=ORIENTED_EDGE('',*,*,#255,.F.);
#208=ORIENTED_EDGE('',*,*,#243,.F.);
#209=ORIENTED_EDGE('',*,*,#256,.F.);
#210=ORIENTED_EDGE('',*,*,#257,.T.);
#211=ORIENTED_EDGE('',*,*,#257,.F.);
#212=ORIENTED_EDGE('',*,*,#242,.F.);
#213=ORIENTED_EDGE('',*,*,#258,.F.);
#214=ORIENTED_EDGE('',*,*,#259,.T.);
#215=ORIENTED_EDGE('',*,*,#259,.F.);
#216=ORIENTED_EDGE('',*,*,#260,.T.);
#217=ORIENTED_EDGE('',*,*,#260,.F.);
#218=ORIENTED_EDGE('',*,*,#258,.T.);
#219=VERTEX_POINT('',#451);
#220=VERTEX_POINT('',#454);
#221=VERTEX_POINT('',#457);
#222=VERTEX_POINT('',#459);
#223=VERTEX_POINT('',#462);
#224=VERTEX_POINT('',#465);
#225=VERTEX_POINT('',#468);
#226=VERTEX_POINT('',#471);
#227=VERTEX_POINT('',#474);
#228=VERTEX_POINT('',#477);
#229=VERTEX_POINT('',#480);
#230=VERTEX_POINT('',#483);
#231=VERTEX_POINT('',#486);
#232=VERTEX_POINT('',#489);
#233=VERTEX_POINT('',#492);
#234=VERTEX_POINT('',#495);
#235=VERTEX_POINT('',#498);
#236=VERTEX_POINT('',#502);
#237=VERTEX_POINT('',#506);
#238=VERTEX_POINT('',#509);
#239=VERTEX_POINT('',#512);
#240=EDGE_CURVE('',#219,#219,#261,.T.);
#241=EDGE_CURVE('',#220,#220,#262,.T.);
#242=EDGE_CURVE('',#221,#221,#263,.T.);
#243=EDGE_CURVE('',#222,#222,#264,.T.);
#244=EDGE_CURVE('',#223,#223,#265,.T.);
#245=EDGE_CURVE('',#224,#224,#266,.T.);
#246=EDGE_CURVE('',#225,#225,#267,.T.);
#247=EDGE_CURVE('',#226,#226,#268,.T.);
#248=EDGE_CURVE('',#227,#227,#269,.T.);
#249=EDGE_CURVE('',#228,#228,#270,.T.);
#250=EDGE_CURVE('',#229,#229,#271,.T.);
#251=EDGE_CURVE('',#230,#230,#272,.T.);
#252=EDGE_CURVE('',#231,#231,#273,.T.);
#253=EDGE_CURVE('',#232,#232,#274,.T.);
#254=EDGE_CURVE('',#233,#233,#275,.T.);
#255=EDGE_CURVE('',#234,#234,#276,.T.);
#256=EDGE_CURVE('',#235,#235,#277,.T.);
#257=EDGE_CURVE('',#236,#236,#278,.T.);
#258=EDGE_CURVE('',#237,#237,#279,.T.);
#259=EDGE_CURVE('',#238,#238,#280,.T.);
#260=EDGE_CURVE('',#239,#239,#281,.T.);
#261=CIRCLE('',#306,7.4999999999999);
#262=CIRCLE('',#308,7.4999999999999);
#263=CIRCLE('',#310,3.);
#264=CIRCLE('',#311,4.24999999999992);
#265=CIRCLE('',#313,8.99999999999998);
#266=CIRCLE('',#315,8.99999999999998);
#267=CIRCLE('',#317,6.86380400399838);
#268=CIRCLE('',#319,4.74999999999989);
#269=CIRCLE('',#321,4.74999999999989);
#270=CIRCLE('',#323,4.44999999999998);
#271=CIRCLE('',#325,4.44999999999998);
#272=CIRCLE('',#327,4.76602540378451);
#273=CIRCLE('',#329,4.89999999999999);
#274=CIRCLE('',#331,4.89999999999999);
#275=CIRCLE('',#333,4.76602540378451);
#276=CIRCLE('',#335,4.49999999999992);
#277=CIRCLE('',#337,4.49999999999992);
#278=CIRCLE('',#340,3.);
#279=CIRCLE('',#343,7.99999999999989);
#280=CIRCLE('',#345,7.428312163513);
#281=CIRCLE('',#347,7.99999999999998);
#282=PRESENTATION_LAYER_ASSIGNMENT('1','Layer 1',(#303,#304,#305,#44));
#283=PRESENTATION_LAYER_ASSIGNMENT('2','Layer 2',(#43));
#284=STYLED_ITEM('',(#289),#303);
#285=STYLED_ITEM('',(#290),#304);
#286=STYLED_ITEM('',(#291),#305);
#287=STYLED_ITEM('',(#292),#43);
#288=STYLED_ITEM('',(#293),#44);
#289=PRESENTATION_STYLE_ASSIGNMENT((#294));
#290=PRESENTATION_STYLE_ASSIGNMENT((#295));
#291=PRESENTATION_STYLE_ASSIGNMENT((#296));
#292=PRESENTATION_STYLE_ASSIGNMENT((#33));
#293=PRESENTATION_STYLE_ASSIGNMENT((#34));
#294=CURVE_STYLE('',#299,POSITIVE_LENGTH_MEASURE(0.18),#297);
#295=CURVE_STYLE('',#300,POSITIVE_LENGTH_MEASURE(0.18),#297);
#296=CURVE_STYLE('',#301,POSITIVE_LENGTH_MEASURE(0.18),#297);
#297=COLOUR_RGB('Strong Stone',0.576470588235294,0.54508278019379,0.392156862745098);
#298=COLOUR_RGB('Medium Gray',0.490196078431373,0.490196078431373,0.490196078431373);
#299=DRAUGHTING_PRE_DEFINED_CURVE_FONT('continuous');
#300=DRAUGHTING_PRE_DEFINED_CURVE_FONT('continuous');
#301=DRAUGHTING_PRE_DEFINED_CURVE_FONT('continuous');
#302=AXIS2_PLACEMENT_3D('',#446,#350,#351);
#303=AXIS2_PLACEMENT_3D('MCS',#447,#352,#353);
#304=AXIS2_PLACEMENT_3D('PCS',#448,#354,#355);
#305=AXIS2_PLACEMENT_3D('CSW',#449,#356,#357);
#306=AXIS2_PLACEMENT_3D('',#450,#358,#359);
#307=AXIS2_PLACEMENT_3D('',#452,#360,#361);
#308=AXIS2_PLACEMENT_3D('',#453,#362,#363);
#309=AXIS2_PLACEMENT_3D('',#455,#364,#365);
#310=AXIS2_PLACEMENT_3D('',#456,#366,#367);
#311=AXIS2_PLACEMENT_3D('',#458,#368,#369);
#312=AXIS2_PLACEMENT_3D('',#460,#370,#371);
#313=AXIS2_PLACEMENT_3D('',#461,#372,#373);
#314=AXIS2_PLACEMENT_3D('',#463,#374,#375);
#315=AXIS2_PLACEMENT_3D('',#464,#376,#377);
#316=AXIS2_PLACEMENT_3D('',#466,#378,#379);
#317=AXIS2_PLACEMENT_3D('',#467,#380,#381);
#318=AXIS2_PLACEMENT_3D('',#469,#382,#383);
#319=AXIS2_PLACEMENT_3D('',#470,#384,#385);
#320=AXIS2_PLACEMENT_3D('',#472,#386,#387);
#321=AXIS2_PLACEMENT_3D('',#473,#388,#389);
#322=AXIS2_PLACEMENT_3D('',#475,#390,#391);
#323=AXIS2_PLACEMENT_3D('',#476,#392,#393);
#324=AXIS2_PLACEMENT_3D('',#478,#394,#395);
#325=AXIS2_PLACEMENT_3D('',#479,#396,#397);
#326=AXIS2_PLACEMENT_3D('',#481,#398,#399);
#327=AXIS2_PLACEMENT_3D('',#482,#400,#401);
#328=AXIS2_PLACEMENT_3D('',#484,#402,#403);
#329=AXIS2_PLACEMENT_3D('',#485,#404,#405);
#330=AXIS2_PLACEMENT_3D('',#487,#406,#407);
#331=AXIS2_PLACEMENT_3D('',#488,#408,#409);
#332=AXIS2_PLACEMENT_3D('',#490,#410,#411);
#333=AXIS2_PLACEMENT_3D('',#491,#412,#413);
#334=AXIS2_PLACEMENT_3D('',#493,#414,#415);
#335=AXIS2_PLACEMENT_3D('',#494,#416,#417);
#336=AXIS2_PLACEMENT_3D('',#496,#418,#419);
#337=AXIS2_PLACEMENT_3D('',#497,#420,#421);
#338=AXIS2_PLACEMENT_3D('',#499,#422,#423);
#339=AXIS2_PLACEMENT_3D('',#500,#424,#425);
#340=AXIS2_PLACEMENT_3D('',#501,#426,#427);
#341=AXIS2_PLACEMENT_3D('',#503,#428,#429);
#342=AXIS2_PLACEMENT_3D('',#504,#430,#431);
#343=AXIS2_PLACEMENT_3D('',#505,#432,#433);
#344=AXIS2_PLACEMENT_3D('',#507,#434,#435);
#345=AXIS2_PLACEMENT_3D('',#508,#436,#437);
#346=AXIS2_PLACEMENT_3D('',#510,#438,#439);
#347=AXIS2_PLACEMENT_3D('',#511,#440,#441);
#348=AXIS2_PLACEMENT_3D('',#513,#442,#443);
#349=AXIS2_PLACEMENT_3D('',#514,#444,#445);
#350=DIRECTION('',(0.,0.,1.));
#351=DIRECTION('',(1.,0.,0.));
#352=DIRECTION('',(0.,0.,1.));
#353=DIRECTION('',(1.,0.,0.));
#354=DIRECTION('',(0.,0.,1.));
#355=DIRECTION('',(1.,0.,0.));
#356=DIRECTION('',(0.,0.,1.));
#357=DIRECTION('',(1.,0.,0.));
#358=DIRECTION('',(0.,0.,-1.));
#359=DIRECTION('',(-1.,0.,0.));
#360=DIRECTION('',(0.,0.,-1.));
#361=DIRECTION('',(-1.,0.,0.));
#362=DIRECTION('',(0.,0.,1.));
#363=DIRECTION('',(1.,0.,0.));
#364=DIRECTION('',(0.,0.,1.));
#365=DIRECTION('',(-1.,0.,0.));
#366=DIRECTION('',(0.,0.,1.));
#367=DIRECTION('',(1.,0.,0.));
#368=DIRECTION('',(0.,0.,-1.));
#369=DIRECTION('',(1.,0.,0.));
#370=DIRECTION('',(0.,0.,1.));
#371=DIRECTION('',(-1.,0.,0.));
#372=DIRECTION('',(0.,0.,1.));
#373=DIRECTION('',(1.,0.,0.));
#374=DIRECTION('',(0.,0.,-1.));
#375=DIRECTION('',(1.,0.,2.41618705838772E-17));
#376=DIRECTION('',(0.,0.,1.));
#377=DIRECTION('',(1.,0.,0.));
#378=DIRECTION('',(0.,0.,1.));
#379=DIRECTION('',(-1.,0.,0.));
#380=DIRECTION('',(0.,0.,1.));
#381=DIRECTION('',(1.,0.,0.));
#382=DIRECTION('',(0.,0.,1.));
#383=DIRECTION('',(-1.,0.,-9.20309924027037E-17));
#384=DIRECTION('',(0.,0.,1.));
#385=DIRECTION('',(1.,0.,0.));
#386=DIRECTION('',(0.,0.,1.));
#387=DIRECTION('',(-1.,0.,0.));
#388=DIRECTION('',(0.,0.,1.));
#389=DIRECTION('',(1.,0.,0.));
#390=DIRECTION('',(0.,0.,1.));
#391=DIRECTION('',(-1.,0.,0.));
#392=DIRECTION('',(0.,0.,1.));
#393=DIRECTION('',(1.,0.,0.));
#394=DIRECTION('',(0.,0.,1.));
#395=DIRECTION('',(-1.,0.,0.));
#396=DIRECTION('',(0.,0.,1.));
#397=DIRECTION('',(1.,0.,0.));
#398=DIRECTION('',(0.,0.,1.));
#399=DIRECTION('',(-1.,0.,0.));
#400=DIRECTION('',(0.,0.,1.));
#401=DIRECTION('',(1.,0.,0.));
#402=DIRECTION('',(0.,0.,-1.));
#403=DIRECTION('',(1.,0.,0.));
#404=DIRECTION('',(0.,0.,1.));
#405=DIRECTION('',(1.,0.,0.));
#406=DIRECTION('',(0.,0.,-1.));
#407=DIRECTION('',(1.,0.,-7.62937266783E-17));
#408=DIRECTION('',(0.,0.,1.));
#409=DIRECTION('',(1.,0.,0.));
#410=DIRECTION('',(0.,0.,1.));
#411=DIRECTION('',(-1.,0.,0.));
#412=DIRECTION('',(0.,0.,1.));
#413=DIRECTION('',(1.,0.,0.));
#414=DIRECTION('',(0.,0.,1.));
#415=DIRECTION('',(-1.,0.,-1.52662413758932E-16));
#416=DIRECTION('',(0.,0.,1.));
#417=DIRECTION('',(1.,0.,0.));
#418=DIRECTION('',(0.,0.,1.));
#419=DIRECTION('',(-1.,0.,0.));
#420=DIRECTION('',(0.,0.,1.));
#421=DIRECTION('',(1.,0.,0.));
#422=DIRECTION('',(0.,0.,1.));
#423=DIRECTION('',(-1.,0.,0.));
#424=DIRECTION('',(0.,0.,1.));
#425=DIRECTION('',(1.,0.,2.76312350578685E-17));
#426=DIRECTION('',(0.,0.,-1.));
#427=DIRECTION('',(1.,0.,0.));
#428=DIRECTION('',(0.,0.,1.));
#429=DIRECTION('',(1.,0.,0.));
#430=DIRECTION('',(0.,0.,1.));
#431=DIRECTION('',(1.,0.,0.));
#432=DIRECTION('',(0.,0.,1.));
#433=DIRECTION('',(-1.,0.,0.));
#434=DIRECTION('',(0.,0.,-1.));
#435=DIRECTION('',(-1.,0.,0.));
#436=DIRECTION('',(0.,0.,1.));
#437=DIRECTION('',(1.,0.,0.));
#438=DIRECTION('',(0.,0.,-1.));
#439=DIRECTION('',(1.,0.,0.));
#440=DIRECTION('',(0.,0.,1.));
#441=DIRECTION('',(1.,0.,0.));
#442=DIRECTION('',(0.,0.,-1.));
#443=DIRECTION('',(1.,0.,7.1125556124001E-17));
#444=DIRECTION('',(0.,0.,1.));
#445=DIRECTION('',(-1.,0.,0.));
#446=CARTESIAN_POINT('',(0.,0.,0.));
#447=CARTESIAN_POINT('',(0.,0.,0.));
#448=CARTESIAN_POINT('',(0.,0.,48.));
#449=CARTESIAN_POINT('',(0.,0.,-62.));
#450=CARTESIAN_POINT('',(0.,0.,-7.105427357601E-15));
#451=CARTESIAN_POINT('',(-7.4999999999999,0.,-7.105427357601E-15));
#452=CARTESIAN_POINT('',(0.,0.,-7.105427357601E-15));
#453=CARTESIAN_POINT('',(0.,0.,-1.49999999999992));
#454=CARTESIAN_POINT('',(7.4999999999999,0.,-1.49999999999992));
#455=CARTESIAN_POINT('',(0.,0.,7.63278329429795E-14));
#456=CARTESIAN_POINT('',(0.,0.,-62.));
#457=CARTESIAN_POINT('',(3.,0.,-62.));
#458=CARTESIAN_POINT('',(0.,0.,-62.));
#459=CARTESIAN_POINT('',(4.24999999999992,0.,-62.));
#460=CARTESIAN_POINT('',(0.,0.,-62.));
#461=CARTESIAN_POINT('',(0.,0.,-2.36602540378432));
#462=CARTESIAN_POINT('',(8.99999999999998,0.,-2.36602540378432));
#463=CARTESIAN_POINT('',(0.,0.,-2.36602540378432));
#464=CARTESIAN_POINT('',(0.,0.,-7.99999999999982));
#465=CARTESIAN_POINT('',(8.99999999999998,0.,-7.99999999999982));
#466=CARTESIAN_POINT('',(0.,0.,7.63278329429795E-14));
#467=CARTESIAN_POINT('',(0.,0.,-11.6999999999999));
#468=CARTESIAN_POINT('',(6.86380400399838,0.,-11.6999999999999));
#469=CARTESIAN_POINT('',(0.,0.,-11.4999999999999));
#470=CARTESIAN_POINT('',(0.,0.,-11.6999999999999));
#471=CARTESIAN_POINT('',(4.74999999999989,0.,-11.6999999999999));
#472=CARTESIAN_POINT('',(0.,4.74999999999989,-11.6999999999999));
#473=CARTESIAN_POINT('',(0.,0.,-34.5154658563508));
#474=CARTESIAN_POINT('',(4.74999999999989,0.,-34.5154658563508));
#475=CARTESIAN_POINT('',(0.,0.,7.63278329429795E-14));
#476=CARTESIAN_POINT('',(0.,0.,-34.6886709371077));
#477=CARTESIAN_POINT('',(4.44999999999998,0.,-34.6886709371077));
#478=CARTESIAN_POINT('',(0.,0.,-34.6886709371077));
#479=CARTESIAN_POINT('',(0.,0.,-34.7334979180808));
#480=CARTESIAN_POINT('',(4.44999999999998,0.,-34.7334979180808));
#481=CARTESIAN_POINT('',(0.,0.,-0.283493649053925));
#482=CARTESIAN_POINT('',(0.,0.,-34.7334936490539));
#483=CARTESIAN_POINT('',(4.76602540378451,0.,-34.7334936490539));
#484=CARTESIAN_POINT('',(0.,4.76602540378451,-34.7334936490538));
#485=CARTESIAN_POINT('',(0.,0.,-35.2334936490539));
#486=CARTESIAN_POINT('',(4.89999999999999,0.,-35.2334936490539));
#487=CARTESIAN_POINT('',(0.,0.,-35.2334936490539));
#488=CARTESIAN_POINT('',(0.,0.,-59.7334936490539));
#489=CARTESIAN_POINT('',(4.89999999999999,0.,-59.7334936490539));
#490=CARTESIAN_POINT('',(0.,0.,-0.283493649053925));
#491=CARTESIAN_POINT('',(0.,0.,-60.2334936490539));
#492=CARTESIAN_POINT('',(4.76602540378451,0.,-60.2334936490539));
#493=CARTESIAN_POINT('',(0.,0.,-60.2334936490539));
#494=CARTESIAN_POINT('',(0.,0.,-60.2334936490539));
#495=CARTESIAN_POINT('',(2.7554552980815E-16,4.49999999999992,-60.2334936490539));
#496=CARTESIAN_POINT('',(0.,4.49999999999992,-60.2334936490539));
#497=CARTESIAN_POINT('',(0.,0.,-61.75));
#498=CARTESIAN_POINT('',(4.49999999999992,0.,-61.75));
#499=CARTESIAN_POINT('',(0.,0.,-0.283493649053925));
#500=CARTESIAN_POINT('',(0.,0.,-61.75));
#501=CARTESIAN_POINT('',(0.,0.,-51.));
#502=CARTESIAN_POINT('',(3.,0.,-51.));
#503=CARTESIAN_POINT('',(0.,0.,-51.));
#504=CARTESIAN_POINT('',(0.,0.,-62.));
#505=CARTESIAN_POINT('',(0.,0.,-7.15573433840433E-15));
#506=CARTESIAN_POINT('',(-7.99999999999989,0.,-7.15573433840433E-15));
#507=CARTESIAN_POINT('',(0.,0.,-7.105427357601E-15));
#508=CARTESIAN_POINT('',(0.,0.,48.));
#509=CARTESIAN_POINT('',(7.428312163513,0.,48.));
#510=CARTESIAN_POINT('',(0.,7.428312163513,48.));
#511=CARTESIAN_POINT('',(0.,0.,47.009807621135));
#512=CARTESIAN_POINT('',(7.99999999999998,0.,47.009807621135));
#513=CARTESIAN_POINT('',(0.,0.,47.009807621135));
#514=CARTESIAN_POINT('',(0.,0.,7.63278329429795E-14));
#515=MECHANICAL_DESIGN_GEOMETRIC_PRESENTATION_REPRESENTATION('',(#284,#285,
#286,#287,#288),#516);
#516=(
GEOMETRIC_REPRESENTATION_CONTEXT(3)
GLOBAL_UNCERTAINTY_ASSIGNED_CONTEXT((#517))
GLOBAL_UNIT_ASSIGNED_CONTEXT((#523,#519,#518))
REPRESENTATION_CONTEXT('PMX06T-AD-05700-16N1','TOP_LEVEL_ASSEMBLY_PART')
);
#517=UNCERTAINTY_MEASURE_WITH_UNIT(LENGTH_MEASURE(2.E-5),#523,
'DISTANCE_ACCURACY_VALUE','Maximum Tolerance applied to model');
#518=(
NAMED_UNIT(*)
SI_UNIT($,.STERADIAN.)
SOLID_ANGLE_UNIT()
);
#519=(
CONVERSION_BASED_UNIT('DEGREE',#521)
NAMED_UNIT(#520)
PLANE_ANGLE_UNIT()
);
#520=DIMENSIONAL_EXPONENTS(0.,0.,0.,0.,0.,0.,0.);
#521=PLANE_ANGLE_MEASURE_WITH_UNIT(PLANE_ANGLE_MEASURE(0.0174532925),#522);
#522=(
NAMED_UNIT(*)
PLANE_ANGLE_UNIT()
SI_UNIT($,.RADIAN.)
);
#523=(
LENGTH_UNIT()
NAMED_UNIT(*)
SI_UNIT(.MILLI.,.METRE.)
);
ENDSEC;
END-ISO-10303-21;
