ISO-10303-21;
HEADER;
/* Generated by software containing ST-Developer
 * from STEP Tools, Inc. (www.steptools.com) 
 */
/* OPTION: using custom schema-name function */

FILE_DESCRIPTION(
/* description */ (''),
/* implementation_level */ '2;1');

FILE_NAME(
/* name */ 'PMX06B-FL-05700-16N1.stp',
/* time_stamp */ '2018-03-16T14:54:18+05:00',
/* author */ (''),
/* organization */ (''),
/* preprocessor_version */ 'ST-DEVELOPER v16',
/* originating_system */ 'SIEMENS PLM Software NX 11.0',
/* authorisation */ '');

FILE_SCHEMA (('AUTOMOTIVE_DESIGN { 1 0 10303 214 3 1 1 1 }'));
ENDSEC;

DATA;
#10=CONSTRUCTIVE_GEOMETRY_REPRESENTATION_RELATIONSHIP(
'supplemental geometry','',#32,#11);
#11=CONSTRUCTIVE_GEOMETRY_REPRESENTATION('supplemental geometry',(#384,
#385,#386),#676);
#12=PROPERTY_DEFINITION_REPRESENTATION(#16,#14);
#13=PROPERTY_DEFINITION_REPRESENTATION(#17,#15);
#14=REPRESENTATION('',(#18),#676);
#15=REPRESENTATION('',(#19),#676);
#16=PROPERTY_DEFINITION('pmi validation property','',#23);
#17=PROPERTY_DEFINITION('pmi validation property','',#23);
#18=VALUE_REPRESENTATION_ITEM('number of annotations',COUNT_MEASURE(0.));
#19=VALUE_REPRESENTATION_ITEM('number of views',COUNT_MEASURE(0.));
#20=SHAPE_REPRESENTATION_RELATIONSHIP('None',
'relationship between PMX06B-FL-05700-16N1-None and PMX06B-FL-05700-16
N1-None',#32,#21);
#21=ADVANCED_BREP_SHAPE_REPRESENTATION('PMX06B-FL-05700-16N1-None',(#49,
#50),#676);
#22=SHAPE_DEFINITION_REPRESENTATION(#23,#32);
#23=PRODUCT_DEFINITION_SHAPE('','',#24);
#24=PRODUCT_DEFINITION(' ','',#26,#25);
#25=PRODUCT_DEFINITION_CONTEXT('part definition',#31,'design');
#26=PRODUCT_DEFINITION_FORMATION_WITH_SPECIFIED_SOURCE(' ',' ',#28,
 .NOT_KNOWN.);
#27=PRODUCT_RELATED_PRODUCT_CATEGORY('part','',(#28));
#28=PRODUCT('PMX06B-FL-05700-16N1','PMX06B-FL-05700-16N1',' ',(#29));
#29=PRODUCT_CONTEXT(' ',#31,'mechanical');
#30=APPLICATION_PROTOCOL_DEFINITION('international standard',
'automotive_design',2010,#31);
#31=APPLICATION_CONTEXT(
'core data for automotive mechanical design processes');
#32=SHAPE_REPRESENTATION('PMX06B-FL-05700-16N1-None',(#383),#676);
#33=SURFACE_OF_REVOLUTION('',#37,#35);
#34=SURFACE_OF_REVOLUTION('',#38,#36);
#35=AXIS1_PLACEMENT('',#615,#503);
#36=AXIS1_PLACEMENT('',#669,#556);
#37=B_SPLINE_CURVE_WITH_KNOTS('',3,(#609,#610,#611,#612,#613,#614),
 .UNSPECIFIED.,.F.,.F.,(4,2,4),(0.,0.53448808445571,1.),.UNSPECIFIED.);
#38=B_SPLINE_CURVE_WITH_KNOTS('',3,(#655,#656,#657,#658,#659,#660,#661,
#662,#663,#664,#665,#666,#667,#668),.UNSPECIFIED.,.F.,.F.,(4,2,2,2,2,2,
4),(0.,0.0099009900990099,0.0273798979676464,0.0506852807475843,0.990497621991468,
0.995663843806365,1.),.UNSPECIFIED.);
#39=SURFACE_STYLE_USAGE(.BOTH.,#41);
#40=SURFACE_STYLE_USAGE(.BOTH.,#42);
#41=SURFACE_SIDE_STYLE('',(#43));
#42=SURFACE_SIDE_STYLE('',(#44));
#43=SURFACE_STYLE_FILL_AREA(#45);
#44=SURFACE_STYLE_FILL_AREA(#46);
#45=FILL_AREA_STYLE('',(#47));
#46=FILL_AREA_STYLE('',(#48));
#47=FILL_AREA_STYLE_COLOUR('',#379);
#48=FILL_AREA_STYLE_COLOUR('',#379);
#49=MANIFOLD_SOLID_BREP('NOCUT',#51);
#50=MANIFOLD_SOLID_BREP('NOCUT',#52);
#51=CLOSED_SHELL('',(#123,#124,#125,#126));
#52=CLOSED_SHELL('',(#127,#128,#129,#130,#131,#132,#133,#134,#135,#136,
#137,#138,#139,#140,#141,#142,#143,#144,#145,#146,#147,#148,#149,#150,#151,
#152));
#53=CYLINDRICAL_SURFACE('',#393,8.00000000000012);
#54=CYLINDRICAL_SURFACE('',#399,6.8750000000001);
#55=CYLINDRICAL_SURFACE('',#403,7.1250000000001);
#56=CYLINDRICAL_SURFACE('',#407,7.19058249999999);
#57=CYLINDRICAL_SURFACE('',#411,7.1116541602803);
#58=CYLINDRICAL_SURFACE('',#416,7.50000000000012);
#59=CYLINDRICAL_SURFACE('',#422,4.75000000000012);
#60=CYLINDRICAL_SURFACE('',#426,4.45000000000009);
#61=CYLINDRICAL_SURFACE('',#432,4.9000000000001);
#62=CYLINDRICAL_SURFACE('',#438,4.50000000000012);
#63=CYLINDRICAL_SURFACE('',#442,3.);
#64=CONICAL_SURFACE('',#392,8.00000000000012,30.0000165887137);
#65=CONICAL_SURFACE('',#401,7.1250000000001,45.);
#66=CONICAL_SURFACE('',#414,7.50000000000012,45.);
#67=CONICAL_SURFACE('',#418,6.75000000000012,45.);
#68=CONICAL_SURFACE('',#424,4.45000000000009,60.0000115675779);
#69=CONICAL_SURFACE('',#430,4.9000000000001,14.9999362553775);
#70=CONICAL_SURFACE('',#434,4.9000000000001,14.9999362553771);
#71=FACE_BOUND('',#169,.T.);
#72=FACE_BOUND('',#170,.T.);
#73=FACE_BOUND('',#171,.T.);
#74=FACE_BOUND('',#172,.T.);
#75=FACE_BOUND('',#173,.T.);
#76=FACE_BOUND('',#174,.T.);
#77=FACE_BOUND('',#175,.T.);
#78=FACE_BOUND('',#176,.T.);
#79=FACE_BOUND('',#177,.T.);
#80=FACE_BOUND('',#178,.T.);
#81=FACE_BOUND('',#179,.T.);
#82=FACE_BOUND('',#180,.T.);
#83=FACE_BOUND('',#181,.T.);
#84=FACE_BOUND('',#182,.T.);
#85=FACE_BOUND('',#183,.T.);
#86=FACE_BOUND('',#184,.T.);
#87=FACE_BOUND('',#185,.T.);
#88=FACE_BOUND('',#186,.T.);
#89=FACE_BOUND('',#187,.T.);
#90=FACE_BOUND('',#188,.T.);
#91=FACE_BOUND('',#189,.T.);
#92=FACE_BOUND('',#190,.T.);
#93=FACE_BOUND('',#191,.T.);
#94=FACE_BOUND('',#192,.T.);
#95=FACE_BOUND('',#193,.T.);
#96=FACE_BOUND('',#194,.T.);
#97=FACE_BOUND('',#195,.T.);
#98=FACE_BOUND('',#196,.T.);
#99=FACE_BOUND('',#197,.T.);
#100=FACE_BOUND('',#198,.T.);
#101=FACE_BOUND('',#199,.T.);
#102=FACE_BOUND('',#200,.T.);
#103=FACE_BOUND('',#201,.T.);
#104=FACE_BOUND('',#202,.T.);
#105=FACE_BOUND('',#203,.T.);
#106=FACE_BOUND('',#204,.T.);
#107=FACE_BOUND('',#205,.T.);
#108=FACE_BOUND('',#206,.T.);
#109=FACE_BOUND('',#207,.T.);
#110=FACE_BOUND('',#208,.T.);
#111=FACE_BOUND('',#209,.T.);
#112=FACE_BOUND('',#210,.T.);
#113=FACE_BOUND('',#211,.T.);
#114=FACE_BOUND('',#212,.T.);
#115=FACE_BOUND('',#213,.T.);
#116=FACE_BOUND('',#214,.T.);
#117=FACE_BOUND('',#215,.T.);
#118=FACE_BOUND('',#216,.T.);
#119=FACE_BOUND('',#217,.T.);
#120=FACE_BOUND('',#218,.T.);
#121=FACE_BOUND('',#221,.T.);
#122=FACE_BOUND('',#222,.T.);
#123=ADVANCED_FACE('',(#163),#153,.T.);
#124=ADVANCED_FACE('',(#164),#154,.T.);
#125=ADVANCED_FACE('',(#71,#72),#64,.T.);
#126=ADVANCED_FACE('',(#73,#74),#53,.T.);
#127=ADVANCED_FACE('',(#75,#76),#155,.T.);
#128=ADVANCED_FACE('',(#77,#78),#54,.T.);
#129=ADVANCED_FACE('',(#79,#80),#65,.T.);
#130=ADVANCED_FACE('',(#81,#82),#55,.T.);
#131=ADVANCED_FACE('',(#83,#84),#156,.T.);
#132=ADVANCED_FACE('',(#85,#86),#56,.T.);
#133=ADVANCED_FACE('',(#87,#88),#157,.T.);
#134=ADVANCED_FACE('',(#89,#90),#57,.T.);
#135=ADVANCED_FACE('',(#91,#92),#33,.F.);
#136=ADVANCED_FACE('',(#93,#94),#66,.T.);
#137=ADVANCED_FACE('',(#95,#96),#58,.T.);
#138=ADVANCED_FACE('',(#97,#98),#67,.T.);
#139=ADVANCED_FACE('',(#99,#100),#158,.T.);
#140=ADVANCED_FACE('',(#101,#102),#59,.T.);
#141=ADVANCED_FACE('',(#103,#104),#68,.T.);
#142=ADVANCED_FACE('',(#105,#106),#60,.T.);
#143=ADVANCED_FACE('',(#107,#108),#159,.T.);
#144=ADVANCED_FACE('',(#109,#110),#69,.T.);
#145=ADVANCED_FACE('',(#111,#112),#61,.T.);
#146=ADVANCED_FACE('',(#113,#114),#70,.T.);
#147=ADVANCED_FACE('',(#115,#116),#160,.T.);
#148=ADVANCED_FACE('',(#117,#118),#62,.T.);
#149=ADVANCED_FACE('',(#119,#120),#34,.F.);
#150=ADVANCED_FACE('',(#165),#161,.F.);
#151=ADVANCED_FACE('',(#166),#162,.F.);
#152=ADVANCED_FACE('',(#121,#122),#63,.F.);
#153=PLANE('',#388);
#154=PLANE('',#390);
#155=PLANE('',#396);
#156=PLANE('',#405);
#157=PLANE('',#409);
#158=PLANE('',#420);
#159=PLANE('',#428);
#160=PLANE('',#436);
#161=PLANE('',#439);
#162=PLANE('',#441);
#163=FACE_OUTER_BOUND('',#167,.T.);
#164=FACE_OUTER_BOUND('',#168,.T.);
#165=FACE_OUTER_BOUND('',#219,.T.);
#166=FACE_OUTER_BOUND('',#220,.T.);
#167=EDGE_LOOP('',(#223));
#168=EDGE_LOOP('',(#224));
#169=EDGE_LOOP('',(#225));
#170=EDGE_LOOP('',(#226));
#171=EDGE_LOOP('',(#227));
#172=EDGE_LOOP('',(#228));
#173=EDGE_LOOP('',(#229));
#174=EDGE_LOOP('',(#230));
#175=EDGE_LOOP('',(#231));
#176=EDGE_LOOP('',(#232));
#177=EDGE_LOOP('',(#233));
#178=EDGE_LOOP('',(#234));
#179=EDGE_LOOP('',(#235));
#180=EDGE_LOOP('',(#236));
#181=EDGE_LOOP('',(#237));
#182=EDGE_LOOP('',(#238));
#183=EDGE_LOOP('',(#239));
#184=EDGE_LOOP('',(#240));
#185=EDGE_LOOP('',(#241));
#186=EDGE_LOOP('',(#242));
#187=EDGE_LOOP('',(#243));
#188=EDGE_LOOP('',(#244));
#189=EDGE_LOOP('',(#245));
#190=EDGE_LOOP('',(#246));
#191=EDGE_LOOP('',(#247));
#192=EDGE_LOOP('',(#248));
#193=EDGE_LOOP('',(#249));
#194=EDGE_LOOP('',(#250));
#195=EDGE_LOOP('',(#251));
#196=EDGE_LOOP('',(#252));
#197=EDGE_LOOP('',(#253));
#198=EDGE_LOOP('',(#254));
#199=EDGE_LOOP('',(#255));
#200=EDGE_LOOP('',(#256));
#201=EDGE_LOOP('',(#257));
#202=EDGE_LOOP('',(#258));
#203=EDGE_LOOP('',(#259));
#204=EDGE_LOOP('',(#260));
#205=EDGE_LOOP('',(#261));
#206=EDGE_LOOP('',(#262));
#207=EDGE_LOOP('',(#263));
#208=EDGE_LOOP('',(#264));
#209=EDGE_LOOP('',(#265));
#210=EDGE_LOOP('',(#266));
#211=EDGE_LOOP('',(#267));
#212=EDGE_LOOP('',(#268));
#213=EDGE_LOOP('',(#269));
#214=EDGE_LOOP('',(#270));
#215=EDGE_LOOP('',(#271));
#216=EDGE_LOOP('',(#272));
#217=EDGE_LOOP('',(#273));
#218=EDGE_LOOP('',(#274));
#219=EDGE_LOOP('',(#275));
#220=EDGE_LOOP('',(#276));
#221=EDGE_LOOP('',(#277));
#222=EDGE_LOOP('',(#278));
#223=ORIENTED_EDGE('',*,*,#307,.T.);
#224=ORIENTED_EDGE('',*,*,#308,.F.);
#225=ORIENTED_EDGE('',*,*,#308,.T.);
#226=ORIENTED_EDGE('',*,*,#309,.F.);
#227=ORIENTED_EDGE('',*,*,#307,.F.);
#228=ORIENTED_EDGE('',*,*,#309,.T.);
#229=ORIENTED_EDGE('',*,*,#310,.T.);
#230=ORIENTED_EDGE('',*,*,#311,.T.);
#231=ORIENTED_EDGE('',*,*,#312,.F.);
#232=ORIENTED_EDGE('',*,*,#313,.F.);
#233=ORIENTED_EDGE('',*,*,#313,.T.);
#234=ORIENTED_EDGE('',*,*,#314,.F.);
#235=ORIENTED_EDGE('',*,*,#314,.T.);
#236=ORIENTED_EDGE('',*,*,#315,.F.);
#237=ORIENTED_EDGE('',*,*,#315,.T.);
#238=ORIENTED_EDGE('',*,*,#316,.F.);
#239=ORIENTED_EDGE('',*,*,#316,.T.);
#240=ORIENTED_EDGE('',*,*,#317,.F.);
#241=ORIENTED_EDGE('',*,*,#317,.T.);
#242=ORIENTED_EDGE('',*,*,#318,.F.);
#243=ORIENTED_EDGE('',*,*,#318,.T.);
#244=ORIENTED_EDGE('',*,*,#319,.F.);
#245=ORIENTED_EDGE('',*,*,#319,.T.);
#246=ORIENTED_EDGE('',*,*,#320,.F.);
#247=ORIENTED_EDGE('',*,*,#320,.T.);
#248=ORIENTED_EDGE('',*,*,#321,.F.);
#249=ORIENTED_EDGE('',*,*,#321,.T.);
#250=ORIENTED_EDGE('',*,*,#322,.F.);
#251=ORIENTED_EDGE('',*,*,#322,.T.);
#252=ORIENTED_EDGE('',*,*,#323,.F.);
#253=ORIENTED_EDGE('',*,*,#323,.T.);
#254=ORIENTED_EDGE('',*,*,#324,.F.);
#255=ORIENTED_EDGE('',*,*,#324,.T.);
#256=ORIENTED_EDGE('',*,*,#325,.F.);
#257=ORIENTED_EDGE('',*,*,#325,.T.);
#258=ORIENTED_EDGE('',*,*,#326,.F.);
#259=ORIENTED_EDGE('',*,*,#326,.T.);
#260=ORIENTED_EDGE('',*,*,#327,.F.);
#261=ORIENTED_EDGE('',*,*,#327,.T.);
#262=ORIENTED_EDGE('',*,*,#328,.F.);
#263=ORIENTED_EDGE('',*,*,#328,.T.);
#264=ORIENTED_EDGE('',*,*,#329,.F.);
#265=ORIENTED_EDGE('',*,*,#329,.T.);
#266=ORIENTED_EDGE('',*,*,#330,.F.);
#267=ORIENTED_EDGE('',*,*,#330,.T.);
#268=ORIENTED_EDGE('',*,*,#331,.F.);
#269=ORIENTED_EDGE('',*,*,#331,.T.);
#270=ORIENTED_EDGE('',*,*,#332,.F.);
#271=ORIENTED_EDGE('',*,*,#332,.T.);
#272=ORIENTED_EDGE('',*,*,#333,.F.);
#273=ORIENTED_EDGE('',*,*,#333,.T.);
#274=ORIENTED_EDGE('',*,*,#311,.F.);
#275=ORIENTED_EDGE('',*,*,#312,.T.);
#276=ORIENTED_EDGE('',*,*,#334,.T.);
#277=ORIENTED_EDGE('',*,*,#334,.F.);
#278=ORIENTED_EDGE('',*,*,#310,.F.);
#279=VERTEX_POINT('',#570);
#280=VERTEX_POINT('',#573);
#281=VERTEX_POINT('',#576);
#282=VERTEX_POINT('',#580);
#283=VERTEX_POINT('',#582);
#284=VERTEX_POINT('',#585);
#285=VERTEX_POINT('',#587);
#286=VERTEX_POINT('',#590);
#287=VERTEX_POINT('',#593);
#288=VERTEX_POINT('',#596);
#289=VERTEX_POINT('',#599);
#290=VERTEX_POINT('',#602);
#291=VERTEX_POINT('',#605);
#292=VERTEX_POINT('',#608);
#293=VERTEX_POINT('',#617);
#294=VERTEX_POINT('',#620);
#295=VERTEX_POINT('',#623);
#296=VERTEX_POINT('',#626);
#297=VERTEX_POINT('',#629);
#298=VERTEX_POINT('',#632);
#299=VERTEX_POINT('',#635);
#300=VERTEX_POINT('',#638);
#301=VERTEX_POINT('',#641);
#302=VERTEX_POINT('',#644);
#303=VERTEX_POINT('',#647);
#304=VERTEX_POINT('',#650);
#305=VERTEX_POINT('',#653);
#306=VERTEX_POINT('',#672);
#307=EDGE_CURVE('',#279,#279,#335,.T.);
#308=EDGE_CURVE('',#280,#280,#336,.T.);
#309=EDGE_CURVE('',#281,#281,#337,.T.);
#310=EDGE_CURVE('',#282,#282,#338,.T.);
#311=EDGE_CURVE('',#283,#283,#339,.T.);
#312=EDGE_CURVE('',#284,#284,#340,.T.);
#313=EDGE_CURVE('',#285,#285,#341,.T.);
#314=EDGE_CURVE('',#286,#286,#342,.T.);
#315=EDGE_CURVE('',#287,#287,#343,.T.);
#316=EDGE_CURVE('',#288,#288,#344,.T.);
#317=EDGE_CURVE('',#289,#289,#345,.T.);
#318=EDGE_CURVE('',#290,#290,#346,.T.);
#319=EDGE_CURVE('',#291,#291,#347,.T.);
#320=EDGE_CURVE('',#292,#292,#348,.T.);
#321=EDGE_CURVE('',#293,#293,#349,.T.);
#322=EDGE_CURVE('',#294,#294,#350,.T.);
#323=EDGE_CURVE('',#295,#295,#351,.T.);
#324=EDGE_CURVE('',#296,#296,#352,.T.);
#325=EDGE_CURVE('',#297,#297,#353,.T.);
#326=EDGE_CURVE('',#298,#298,#354,.T.);
#327=EDGE_CURVE('',#299,#299,#355,.T.);
#328=EDGE_CURVE('',#300,#300,#356,.T.);
#329=EDGE_CURVE('',#301,#301,#357,.T.);
#330=EDGE_CURVE('',#302,#302,#358,.T.);
#331=EDGE_CURVE('',#303,#303,#359,.T.);
#332=EDGE_CURVE('',#304,#304,#360,.T.);
#333=EDGE_CURVE('',#305,#305,#361,.T.);
#334=EDGE_CURVE('',#306,#306,#362,.T.);
#335=CIRCLE('',#387,8.00000000000012);
#336=CIRCLE('',#389,7.42831199999999);
#337=CIRCLE('',#391,8.00000000000012);
#338=CIRCLE('',#394,3.);
#339=CIRCLE('',#395,4.3363249380869);
#340=CIRCLE('',#397,6.8750000000001);
#341=CIRCLE('',#398,6.8750000000001);
#342=CIRCLE('',#400,7.1250000000001);
#343=CIRCLE('',#402,7.1250000000001);
#344=CIRCLE('',#404,7.19058249999999);
#345=CIRCLE('',#406,7.19058249999999);
#346=CIRCLE('',#408,7.111654);
#347=CIRCLE('',#410,7.1116543205606);
#348=CIRCLE('',#412,7.2250019557781);
#349=CIRCLE('',#413,7.50000000000012);
#350=CIRCLE('',#415,7.50000000000012);
#351=CIRCLE('',#417,6.48148700000012);
#352=CIRCLE('',#419,4.75000000000012);
#353=CIRCLE('',#421,4.75000000000012);
#354=CIRCLE('',#423,4.45000000000009);
#355=CIRCLE('',#425,4.45000000000009);
#356=CIRCLE('',#427,4.76602600000001);
#357=CIRCLE('',#429,4.9000000000001);
#358=CIRCLE('',#431,4.9000000000001);
#359=CIRCLE('',#433,4.76602600000001);
#360=CIRCLE('',#435,4.50000000000012);
#361=CIRCLE('',#437,4.5);
#362=CIRCLE('',#440,3.);
#363=PRESENTATION_LAYER_ASSIGNMENT('1','Layer 1',(#384,#385,#386,#49));
#364=PRESENTATION_LAYER_ASSIGNMENT('2','Layer 2',(#50));
#365=STYLED_ITEM('',(#370),#384);
#366=STYLED_ITEM('',(#371),#385);
#367=STYLED_ITEM('',(#372),#386);
#368=STYLED_ITEM('',(#373),#49);
#369=STYLED_ITEM('',(#374),#50);
#370=PRESENTATION_STYLE_ASSIGNMENT((#375));
#371=PRESENTATION_STYLE_ASSIGNMENT((#376));
#372=PRESENTATION_STYLE_ASSIGNMENT((#377));
#373=PRESENTATION_STYLE_ASSIGNMENT((#39));
#374=PRESENTATION_STYLE_ASSIGNMENT((#40));
#375=CURVE_STYLE('',#380,POSITIVE_LENGTH_MEASURE(0.18),#378);
#376=CURVE_STYLE('',#381,POSITIVE_LENGTH_MEASURE(0.18),#378);
#377=CURVE_STYLE('',#382,POSITIVE_LENGTH_MEASURE(0.18),#378);
#378=COLOUR_RGB('Strong Stone',0.576470588235294,0.54508278019379,0.392156862745098);
#379=COLOUR_RGB('Medium Gray',0.490196078431373,0.490196078431373,0.490196078431373);
#380=DRAUGHTING_PRE_DEFINED_CURVE_FONT('continuous');
#381=DRAUGHTING_PRE_DEFINED_CURVE_FONT('continuous');
#382=DRAUGHTING_PRE_DEFINED_CURVE_FONT('continuous');
#383=AXIS2_PLACEMENT_3D('',#565,#443,#444);
#384=AXIS2_PLACEMENT_3D('PCS',#566,#445,#446);
#385=AXIS2_PLACEMENT_3D('MCS',#567,#447,#448);
#386=AXIS2_PLACEMENT_3D('CSW',#568,#449,#450);
#387=AXIS2_PLACEMENT_3D('',#569,#451,#452);
#388=AXIS2_PLACEMENT_3D('',#571,#453,#454);
#389=AXIS2_PLACEMENT_3D('',#572,#455,#456);
#390=AXIS2_PLACEMENT_3D('',#574,#457,#458);
#391=AXIS2_PLACEMENT_3D('',#575,#459,#460);
#392=AXIS2_PLACEMENT_3D('',#577,#461,#462);
#393=AXIS2_PLACEMENT_3D('',#578,#463,#464);
#394=AXIS2_PLACEMENT_3D('',#579,#465,#466);
#395=AXIS2_PLACEMENT_3D('',#581,#467,#468);
#396=AXIS2_PLACEMENT_3D('',#583,#469,#470);
#397=AXIS2_PLACEMENT_3D('',#584,#471,#472);
#398=AXIS2_PLACEMENT_3D('',#586,#473,#474);
#399=AXIS2_PLACEMENT_3D('',#588,#475,#476);
#400=AXIS2_PLACEMENT_3D('',#589,#477,#478);
#401=AXIS2_PLACEMENT_3D('',#591,#479,#480);
#402=AXIS2_PLACEMENT_3D('',#592,#481,#482);
#403=AXIS2_PLACEMENT_3D('',#594,#483,#484);
#404=AXIS2_PLACEMENT_3D('',#595,#485,#486);
#405=AXIS2_PLACEMENT_3D('',#597,#487,#488);
#406=AXIS2_PLACEMENT_3D('',#598,#489,#490);
#407=AXIS2_PLACEMENT_3D('',#600,#491,#492);
#408=AXIS2_PLACEMENT_3D('',#601,#493,#494);
#409=AXIS2_PLACEMENT_3D('',#603,#495,#496);
#410=AXIS2_PLACEMENT_3D('',#604,#497,#498);
#411=AXIS2_PLACEMENT_3D('',#606,#499,#500);
#412=AXIS2_PLACEMENT_3D('',#607,#501,#502);
#413=AXIS2_PLACEMENT_3D('',#616,#504,#505);
#414=AXIS2_PLACEMENT_3D('',#618,#506,#507);
#415=AXIS2_PLACEMENT_3D('',#619,#508,#509);
#416=AXIS2_PLACEMENT_3D('',#621,#510,#511);
#417=AXIS2_PLACEMENT_3D('',#622,#512,#513);
#418=AXIS2_PLACEMENT_3D('',#624,#514,#515);
#419=AXIS2_PLACEMENT_3D('',#625,#516,#517);
#420=AXIS2_PLACEMENT_3D('',#627,#518,#519);
#421=AXIS2_PLACEMENT_3D('',#628,#520,#521);
#422=AXIS2_PLACEMENT_3D('',#630,#522,#523);
#423=AXIS2_PLACEMENT_3D('',#631,#524,#525);
#424=AXIS2_PLACEMENT_3D('',#633,#526,#527);
#425=AXIS2_PLACEMENT_3D('',#634,#528,#529);
#426=AXIS2_PLACEMENT_3D('',#636,#530,#531);
#427=AXIS2_PLACEMENT_3D('',#637,#532,#533);
#428=AXIS2_PLACEMENT_3D('',#639,#534,#535);
#429=AXIS2_PLACEMENT_3D('',#640,#536,#537);
#430=AXIS2_PLACEMENT_3D('',#642,#538,#539);
#431=AXIS2_PLACEMENT_3D('',#643,#540,#541);
#432=AXIS2_PLACEMENT_3D('',#645,#542,#543);
#433=AXIS2_PLACEMENT_3D('',#646,#544,#545);
#434=AXIS2_PLACEMENT_3D('',#648,#546,#547);
#435=AXIS2_PLACEMENT_3D('',#649,#548,#549);
#436=AXIS2_PLACEMENT_3D('',#651,#550,#551);
#437=AXIS2_PLACEMENT_3D('',#652,#552,#553);
#438=AXIS2_PLACEMENT_3D('',#654,#554,#555);
#439=AXIS2_PLACEMENT_3D('',#670,#557,#558);
#440=AXIS2_PLACEMENT_3D('',#671,#559,#560);
#441=AXIS2_PLACEMENT_3D('',#673,#561,#562);
#442=AXIS2_PLACEMENT_3D('',#674,#563,#564);
#443=DIRECTION('',(0.,0.,1.));
#444=DIRECTION('',(1.,0.,0.));
#445=DIRECTION('',(0.,0.,1.));
#446=DIRECTION('',(1.,0.,0.));
#447=DIRECTION('',(0.,0.,1.));
#448=DIRECTION('',(1.,0.,0.));
#449=DIRECTION('',(0.,0.,1.));
#450=DIRECTION('',(1.,0.,0.));
#451=DIRECTION('',(0.,0.,-1.));
#452=DIRECTION('',(-1.,0.,0.));
#453=DIRECTION('',(0.,0.,-1.));
#454=DIRECTION('',(-1.,0.,0.));
#455=DIRECTION('',(0.,0.,-1.));
#456=DIRECTION('',(-1.,0.,0.));
#457=DIRECTION('',(0.,0.,1.));
#458=DIRECTION('',(-1.,0.,0.));
#459=DIRECTION('',(0.,0.,-1.));
#460=DIRECTION('',(-1.,0.,0.));
#461=DIRECTION('',(0.,0.,-1.));
#462=DIRECTION('',(1.,0.,-2.37085030723036E-17));
#463=DIRECTION('',(0.,0.,-1.));
#464=DIRECTION('',(1.,0.,0.));
#465=DIRECTION('',(0.,0.,1.));
#466=DIRECTION('',(1.,0.,0.));
#467=DIRECTION('',(0.,0.,-1.));
#468=DIRECTION('',(-1.,0.,0.));
#469=DIRECTION('',(0.,0.,-1.));
#470=DIRECTION('',(1.,0.,0.));
#471=DIRECTION('',(0.,0.,1.));
#472=DIRECTION('',(-1.,0.,0.));
#473=DIRECTION('',(0.,0.,-1.));
#474=DIRECTION('',(-1.,0.,0.));
#475=DIRECTION('',(0.,0.,-1.));
#476=DIRECTION('',(1.,0.,0.));
#477=DIRECTION('',(0.,0.,-1.));
#478=DIRECTION('',(-1.,0.,0.));
#479=DIRECTION('',(0.,0.,-1.));
#480=DIRECTION('',(1.,0.,-2.77745225767665E-17));
#481=DIRECTION('',(0.,0.,-1.));
#482=DIRECTION('',(-1.,0.,0.));
#483=DIRECTION('',(0.,0.,-1.));
#484=DIRECTION('',(1.,0.,0.));
#485=DIRECTION('',(0.,0.,-1.));
#486=DIRECTION('',(1.,0.,0.));
#487=DIRECTION('',(0.,0.,1.));
#488=DIRECTION('',(-1.,0.,0.));
#489=DIRECTION('',(0.,0.,-1.));
#490=DIRECTION('',(-1.,0.,0.));
#491=DIRECTION('',(0.,0.,-1.));
#492=DIRECTION('',(-1.,0.,0.));
#493=DIRECTION('',(0.,0.,-1.));
#494=DIRECTION('',(-1.,0.,0.));
#495=DIRECTION('',(0.,0.,-1.));
#496=DIRECTION('',(1.,0.,0.));
#497=DIRECTION('',(0.,0.,-1.));
#498=DIRECTION('',(-1.,0.,0.));
#499=DIRECTION('',(0.,0.,-1.));
#500=DIRECTION('',(1.,0.,0.));
#501=DIRECTION('',(0.,0.,-1.));
#502=DIRECTION('',(-1.,0.,0.));
#503=DIRECTION('',(0.,0.,-1.));
#504=DIRECTION('',(0.,0.,-1.));
#505=DIRECTION('',(-1.,0.,0.));
#506=DIRECTION('',(0.,0.,-1.));
#507=DIRECTION('',(1.,0.,1.06752213906265E-16));
#508=DIRECTION('',(0.,0.,-1.));
#509=DIRECTION('',(-1.,0.,0.));
#510=DIRECTION('',(0.,0.,-1.));
#511=DIRECTION('',(1.,0.,0.));
#512=DIRECTION('',(0.,0.,-1.));
#513=DIRECTION('',(-1.,0.,0.));
#514=DIRECTION('',(0.,0.,1.));
#515=DIRECTION('',(-1.,0.,-3.96311298211736E-17));
#516=DIRECTION('',(0.,0.,-1.));
#517=DIRECTION('',(-1.,0.,0.));
#518=DIRECTION('',(0.,0.,-1.));
#519=DIRECTION('',(1.,0.,0.));
#520=DIRECTION('',(0.,0.,-1.));
#521=DIRECTION('',(-1.,0.,0.));
#522=DIRECTION('',(0.,0.,-1.));
#523=DIRECTION('',(1.,0.,0.));
#524=DIRECTION('',(0.,0.,-1.));
#525=DIRECTION('',(-1.,0.,0.));
#526=DIRECTION('',(0.,0.,1.));
#527=DIRECTION('',(-1.,0.,-3.99590408866624E-18));
#528=DIRECTION('',(0.,0.,-1.));
#529=DIRECTION('',(-1.,0.,0.));
#530=DIRECTION('',(0.,0.,-1.));
#531=DIRECTION('',(1.,0.,0.));
#532=DIRECTION('',(0.,0.,-1.));
#533=DIRECTION('',(-1.,0.,0.));
#534=DIRECTION('',(0.,0.,1.));
#535=DIRECTION('',(-1.,0.,0.));
#536=DIRECTION('',(0.,0.,-1.));
#537=DIRECTION('',(-1.,0.,0.));
#538=DIRECTION('',(0.,0.,-1.));
#539=DIRECTION('',(1.,0.,-1.27156766842757E-16));
#540=DIRECTION('',(0.,0.,-1.));
#541=DIRECTION('',(1.,0.,0.));
#542=DIRECTION('',(0.,0.,-1.));
#543=DIRECTION('',(1.,0.,0.));
#544=DIRECTION('',(0.,0.,-1.));
#545=DIRECTION('',(-1.,0.,0.));
#546=DIRECTION('',(0.,0.,1.));
#547=DIRECTION('',(-1.,0.,0.));
#548=DIRECTION('',(0.,0.,-1.));
#549=DIRECTION('',(-1.,0.,0.));
#550=DIRECTION('',(0.,0.,-1.));
#551=DIRECTION('',(1.,0.,0.));
#552=DIRECTION('',(0.,0.,-1.));
#553=DIRECTION('',(-1.,0.,0.));
#554=DIRECTION('',(0.,0.,-1.));
#555=DIRECTION('',(1.,0.,0.));
#556=DIRECTION('',(0.,0.,-1.));
#557=DIRECTION('',(0.,0.,-1.));
#558=DIRECTION('',(-1.,0.,0.));
#559=DIRECTION('',(0.,0.,-1.));
#560=DIRECTION('',(1.,0.,0.));
#561=DIRECTION('',(0.,0.,1.));
#562=DIRECTION('',(1.,0.,0.));
#563=DIRECTION('',(0.,0.,1.));
#564=DIRECTION('',(1.,0.,0.));
#565=CARTESIAN_POINT('',(0.,0.,0.));
#566=CARTESIAN_POINT('',(0.,0.,48.));
#567=CARTESIAN_POINT('',(0.,0.,0.));
#568=CARTESIAN_POINT('',(0.,0.,-62.));
#569=CARTESIAN_POINT('',(0.,0.,0.));
#570=CARTESIAN_POINT('',(-8.00000000000012,0.,0.));
#571=CARTESIAN_POINT('',(0.,0.,0.));
#572=CARTESIAN_POINT('',(0.,0.,48.));
#573=CARTESIAN_POINT('',(-7.42831199999999,0.,48.));
#574=CARTESIAN_POINT('',(0.,7.42831199999999,48.));
#575=CARTESIAN_POINT('',(0.,0.,47.009808));
#576=CARTESIAN_POINT('',(-8.00000000000012,0.,47.009808));
#577=CARTESIAN_POINT('',(0.,0.,47.009808));
#578=CARTESIAN_POINT('',(0.,0.,-71.834310001188));
#579=CARTESIAN_POINT('',(0.,0.,-62.));
#580=CARTESIAN_POINT('',(3.,0.,-62.));
#581=CARTESIAN_POINT('',(0.,0.,-62.));
#582=CARTESIAN_POINT('',(-4.3363249380869,0.,-62.));
#583=CARTESIAN_POINT('',(0.,0.,-62.));
#584=CARTESIAN_POINT('',(0.,0.,0.));
#585=CARTESIAN_POINT('',(-6.8750000000001,0.,0.));
#586=CARTESIAN_POINT('',(0.,0.,-0.731486999999975));
#587=CARTESIAN_POINT('',(-6.8750000000001,0.,-0.731486999999975));
#588=CARTESIAN_POINT('',(0.,0.,-71.834310001188));
#589=CARTESIAN_POINT('',(0.,0.,-0.981486999999975));
#590=CARTESIAN_POINT('',(-7.1250000000001,0.,-0.981486999999975));
#591=CARTESIAN_POINT('',(0.,0.,-0.981486999999975));
#592=CARTESIAN_POINT('',(0.,0.,-1.23148699999998));
#593=CARTESIAN_POINT('',(-7.1250000000001,0.,-1.23148699999998));
#594=CARTESIAN_POINT('',(0.,0.,-71.834310001188));
#595=CARTESIAN_POINT('',(0.,0.,-1.23148699999998));
#596=CARTESIAN_POINT('',(7.19058249999999,0.,-1.23148699999998));
#597=CARTESIAN_POINT('',(0.,7.26439999999998,-1.23148699999998));
#598=CARTESIAN_POINT('',(0.,0.,-2.88248699999999));
#599=CARTESIAN_POINT('',(-7.19058249999999,0.,-2.88248699999999));
#600=CARTESIAN_POINT('',(0.,0.,-73.524759585945));
#601=CARTESIAN_POINT('',(0.,0.,-2.88248699999999));
#602=CARTESIAN_POINT('',(-7.111654,0.,-2.88248699999999));
#603=CARTESIAN_POINT('',(0.,7.111654,-2.88248699999999));
#604=CARTESIAN_POINT('',(0.,0.,-3.03148725046101));
#605=CARTESIAN_POINT('',(-7.1116543205606,0.,-3.03148725046101));
#606=CARTESIAN_POINT('',(0.,0.,-71.834310001188));
#607=CARTESIAN_POINT('',(0.,0.,-3.1314887743));
#608=CARTESIAN_POINT('',(-7.2250019557781,0.,-3.1314887743));
#609=CARTESIAN_POINT('',(0.,7.22500391155601,-3.13149054860001));
#610=CARTESIAN_POINT('',(0.,7.22499639430099,-3.13148395232199));
#611=CARTESIAN_POINT('',(0.,7.21265978164498,-3.12065876301698));
#612=CARTESIAN_POINT('',(0.,7.17097977883396,-3.08395006135001));
#613=CARTESIAN_POINT('',(0.,7.14376147078399,-3.05994020356901));
#614=CARTESIAN_POINT('',(0.,7.11165432055999,-3.03148725046101));
#615=CARTESIAN_POINT('',(0.,0.,-71.834310001188));
#616=CARTESIAN_POINT('',(0.,0.,-3.40648700000001));
#617=CARTESIAN_POINT('',(-7.50000000000012,0.,-3.40648700000001));
#618=CARTESIAN_POINT('',(0.,0.,-3.40648700000001));
#619=CARTESIAN_POINT('',(0.,0.,-10.981487));
#620=CARTESIAN_POINT('',(-7.50000000000012,0.,-10.981487));
#621=CARTESIAN_POINT('',(0.,0.,-71.834310001188));
#622=CARTESIAN_POINT('',(0.,0.,-12.));
#623=CARTESIAN_POINT('',(-6.48148700000012,0.,-12.));
#624=CARTESIAN_POINT('',(0.,0.,-11.731487));
#625=CARTESIAN_POINT('',(0.,0.,-12.));
#626=CARTESIAN_POINT('',(-4.75000000000012,0.,-12.));
#627=CARTESIAN_POINT('',(0.,4.75,-12.));
#628=CARTESIAN_POINT('',(0.,0.,-34.231972));
#629=CARTESIAN_POINT('',(-4.75000000000012,0.,-34.231972));
#630=CARTESIAN_POINT('',(0.,0.,-71.834310001188));
#631=CARTESIAN_POINT('',(0.,0.,-34.405177));
#632=CARTESIAN_POINT('',(-4.45000000000009,0.,-34.405177));
#633=CARTESIAN_POINT('',(0.,0.,-34.405177));
#634=CARTESIAN_POINT('',(0.,0.,-34.4500045));
#635=CARTESIAN_POINT('',(-4.45000000000009,0.,-34.4500045));
#636=CARTESIAN_POINT('',(0.,0.,-71.834310001188));
#637=CARTESIAN_POINT('',(0.,0.,-34.45));
#638=CARTESIAN_POINT('',(-4.76602600000001,0.,-34.45));
#639=CARTESIAN_POINT('',(0.,4.76602599999998,-34.45));
#640=CARTESIAN_POINT('',(0.,0.,-34.95));
#641=CARTESIAN_POINT('',(-4.9000000000001,0.,-34.95));
#642=CARTESIAN_POINT('',(0.,0.,-34.95));
#643=CARTESIAN_POINT('',(0.,0.,-59.45));
#644=CARTESIAN_POINT('',(-4.9000000000001,0.,-59.45));
#645=CARTESIAN_POINT('',(0.,0.,-71.834310001188));
#646=CARTESIAN_POINT('',(0.,0.,-59.95));
#647=CARTESIAN_POINT('',(-4.76602600000001,0.,-59.95));
#648=CARTESIAN_POINT('',(0.,0.,-59.45));
#649=CARTESIAN_POINT('',(0.,0.,-59.95));
#650=CARTESIAN_POINT('',(-8.26636589424506E-16,4.50000000000012,-59.95));
#651=CARTESIAN_POINT('',(0.,4.5,-59.95));
#652=CARTESIAN_POINT('',(0.,0.,-61.713743434872));
#653=CARTESIAN_POINT('',(-4.5,0.,-61.713743434872));
#654=CARTESIAN_POINT('',(0.,0.,-71.834310001188));
#655=CARTESIAN_POINT('',(0.,4.3356566935939,-62.0011574115676));
#656=CARTESIAN_POINT('',(0.,4.33619797969893,-62.0002198942279));
#657=CARTESIAN_POINT('',(0.,4.33673926580396,-61.9992823768882));
#658=CARTESIAN_POINT('',(0.,4.33823612199499,-61.9966897948487));
#659=CARTESIAN_POINT('',(0.,4.339191692081,-61.9950347301488));
#660=CARTESIAN_POINT('',(0.,4.34142136503399,-61.991172896202));
#661=CARTESIAN_POINT('',(0.,4.3426954679,-61.988966126954));
#662=CARTESIAN_POINT('',(0.,4.39534901427799,-61.897769230719));
#663=CARTESIAN_POINT('',(0.,4.446808718124,-61.807588323205));
#664=CARTESIAN_POINT('',(0.,4.49871782563599,-61.716005644409));
#665=CARTESIAN_POINT('',(0.,4.49900161905001,-61.715504932348));
#666=CARTESIAN_POINT('',(0.,4.49952360830999,-61.714583958482));
#667=CARTESIAN_POINT('',(0.,4.49976180415498,-61.714163696677));
#668=CARTESIAN_POINT('',(0.,4.5,-61.713743434872));
#669=CARTESIAN_POINT('',(0.,0.,-71.834310001188));
#670=CARTESIAN_POINT('',(0.,0.,0.));
#671=CARTESIAN_POINT('',(0.,0.,-51.));
#672=CARTESIAN_POINT('',(3.,0.,-51.));
#673=CARTESIAN_POINT('',(0.,0.,-51.));
#674=CARTESIAN_POINT('',(0.,0.,-62.));
#675=MECHANICAL_DESIGN_GEOMETRIC_PRESENTATION_REPRESENTATION('',(#365,#366,
#367,#368,#369),#676);
#676=(
GEOMETRIC_REPRESENTATION_CONTEXT(3)
GLOBAL_UNCERTAINTY_ASSIGNED_CONTEXT((#677))
GLOBAL_UNIT_ASSIGNED_CONTEXT((#683,#679,#678))
REPRESENTATION_CONTEXT('PMX06B-FL-05700-16N1','TOP_LEVEL_ASSEMBLY_PART')
);
#677=UNCERTAINTY_MEASURE_WITH_UNIT(LENGTH_MEASURE(2.E-5),#683,
'DISTANCE_ACCURACY_VALUE','Maximum Tolerance applied to model');
#678=(
NAMED_UNIT(*)
SI_UNIT($,.STERADIAN.)
SOLID_ANGLE_UNIT()
);
#679=(
CONVERSION_BASED_UNIT('DEGREE',#681)
NAMED_UNIT(#680)
PLANE_ANGLE_UNIT()
);
#680=DIMENSIONAL_EXPONENTS(0.,0.,0.,0.,0.,0.,0.);
#681=PLANE_ANGLE_MEASURE_WITH_UNIT(PLANE_ANGLE_MEASURE(0.0174532925),#682);
#682=(
NAMED_UNIT(*)
PLANE_ANGLE_UNIT()
SI_UNIT($,.RADIAN.)
);
#683=(
LENGTH_UNIT()
NAMED_UNIT(*)
SI_UNIT(.MILLI.,.METRE.)
);
ENDSEC;
END-ISO-10303-21;
