ISO-10303-21;
HEADER;
/* Generated by software containing ST-Developer
 * from STEP Tools, Inc. (www.steptools.com) 
 */
/* OPTION: using custom schema-name function */

FILE_DESCRIPTION(
/* description */ (''),
/* implementation_level */ '2;1');

FILE_NAME(
/* name */ 'PMX06B-AD-05700-16N1.stp',
/* time_stamp */ '2018-03-16T14:54:19+05:00',
/* author */ (''),
/* organization */ (''),
/* preprocessor_version */ 'ST-DEVELOPER v16',
/* originating_system */ 'SIEMENS PLM Software NX 11.0',
/* authorisation */ '');

FILE_SCHEMA (('AUTOMOTIVE_DESIGN { 1 0 10303 214 3 1 1 1 }'));
ENDSEC;

DATA;
#10=CONSTRUCTIVE_GEOMETRY_REPRESENTATION_RELATIONSHIP(
'supplemental geometry','',#32,#11);
#11=CONSTRUCTIVE_GEOMETRY_REPRESENTATION('supplemental geometry',(#331,
#332,#333),#608);
#12=PROPERTY_DEFINITION_REPRESENTATION(#16,#14);
#13=PROPERTY_DEFINITION_REPRESENTATION(#17,#15);
#14=REPRESENTATION('',(#18),#608);
#15=REPRESENTATION('',(#19),#608);
#16=PROPERTY_DEFINITION('pmi validation property','',#23);
#17=PROPERTY_DEFINITION('pmi validation property','',#23);
#18=VALUE_REPRESENTATION_ITEM('number of annotations',COUNT_MEASURE(0.));
#19=VALUE_REPRESENTATION_ITEM('number of views',COUNT_MEASURE(0.));
#20=SHAPE_REPRESENTATION_RELATIONSHIP('None',
'relationship between PMX06B-AD-05700-16N1-None and PMX06B-AD-05700-16
N1-None',#32,#21);
#21=ADVANCED_BREP_SHAPE_REPRESENTATION('PMX06B-AD-05700-16N1-None',(#43,
#44),#608);
#22=SHAPE_DEFINITION_REPRESENTATION(#23,#32);
#23=PRODUCT_DEFINITION_SHAPE('','',#24);
#24=PRODUCT_DEFINITION(' ','',#26,#25);
#25=PRODUCT_DEFINITION_CONTEXT('part definition',#31,'design');
#26=PRODUCT_DEFINITION_FORMATION_WITH_SPECIFIED_SOURCE(' ',' ',#28,
 .NOT_KNOWN.);
#27=PRODUCT_RELATED_PRODUCT_CATEGORY('part','',(#28));
#28=PRODUCT('PMX06B-AD-05700-16N1','PMX06B-AD-05700-16N1',' ',(#29));
#29=PRODUCT_CONTEXT(' ',#31,'mechanical');
#30=APPLICATION_PROTOCOL_DEFINITION('international standard',
'automotive_design',2010,#31);
#31=APPLICATION_CONTEXT(
'core data for automotive mechanical design processes');
#32=SHAPE_REPRESENTATION('PMX06B-AD-05700-16N1-None',(#330),#608);
#33=SURFACE_STYLE_USAGE(.BOTH.,#35);
#34=SURFACE_STYLE_USAGE(.BOTH.,#36);
#35=SURFACE_SIDE_STYLE('',(#37));
#36=SURFACE_SIDE_STYLE('',(#38));
#37=SURFACE_STYLE_FILL_AREA(#39);
#38=SURFACE_STYLE_FILL_AREA(#40);
#39=FILL_AREA_STYLE('',(#41));
#40=FILL_AREA_STYLE('',(#42));
#41=FILL_AREA_STYLE_COLOUR('',#326);
#42=FILL_AREA_STYLE_COLOUR('',#326);
#43=MANIFOLD_SOLID_BREP('NOCUT',#45);
#44=MANIFOLD_SOLID_BREP('NOCUT',#46);
#45=CLOSED_SHELL('',(#78,#79,#80,#81,#82,#83,#84,#85,#86,#87,#88,#89,#90,
#91,#92,#93,#94,#95,#96,#97,#98));
#46=CLOSED_SHELL('',(#99,#100,#101,#102));
#47=FACE_OUTER_BOUND('',#187,.T.);
#48=FACE_OUTER_BOUND('',#188,.T.);
#49=FACE_OUTER_BOUND('',#191,.T.);
#50=FACE_OUTER_BOUND('',#192,.T.);
#51=CONICAL_SURFACE('',#343,4.27971768019819,72.5000000000128);
#52=CONICAL_SURFACE('',#347,4.4499999999999,72.4999999999752);
#53=CONICAL_SURFACE('',#351,4.74999999999998,60.0000000000111);
#54=CONICAL_SURFACE('',#357,8.99999999999995,30.0000000000001);
#55=CONICAL_SURFACE('',#361,7.49999999999995,59.9999999999991);
#56=CONICAL_SURFACE('',#365,7.99999999999995,45.);
#57=CONICAL_SURFACE('',#375,7.42831216351292,29.9999999999967);
#58=CYLINDRICAL_SURFACE('',#339,4.35691778073832);
#59=CYLINDRICAL_SURFACE('',#341,4.49999999999995);
#60=CYLINDRICAL_SURFACE('',#345,4.27971768019819);
#61=CYLINDRICAL_SURFACE('',#349,4.4499999999999);
#62=CYLINDRICAL_SURFACE('',#353,4.74999999999998);
#63=CYLINDRICAL_SURFACE('',#359,8.99999999999995);
#64=CYLINDRICAL_SURFACE('',#363,7.49999999999995);
#65=CYLINDRICAL_SURFACE('',#369,3.);
#66=CYLINDRICAL_SURFACE('',#376,7.99999999999995);
#67=SURFACE_OF_REVOLUTION('',#73,#70);
#68=SURFACE_OF_REVOLUTION('',#75,#71);
#69=SURFACE_OF_REVOLUTION('',#77,#72);
#70=AXIS1_PLACEMENT('',#489,#393);
#71=AXIS1_PLACEMENT('',#515,#394);
#72=AXIS1_PLACEMENT('',#552,#399);
#73=B_SPLINE_CURVE_WITH_KNOTS('',3,(#485,#486,#487,#488),.UNSPECIFIED.,
 .F.,.F.,(4,4),(0.,1.),.UNSPECIFIED.);
#74=B_SPLINE_CURVE_WITH_KNOTS('',3,(#490,#491,#492,#493,#494,#495,#496,
#497,#498,#499,#500,#501,#502,#503,#504,#505,#506,#507),.UNSPECIFIED.,.T.,
 .F.,(2,2,2,2,2,2,2,2,2,2,2),(-0.125,0.,0.125,0.25,0.375,0.5,0.625,0.75,
0.875,1.,1.125),.UNSPECIFIED.);
#75=B_SPLINE_CURVE_WITH_KNOTS('',3,(#509,#510,#511,#512,#513,#514),
 .UNSPECIFIED.,.F.,.F.,(4,2,4),(0.,0.499983100932961,1.),.UNSPECIFIED.);
#76=B_SPLINE_CURVE_WITH_KNOTS('',3,(#519,#520,#521,#522,#523,#524,#525,
#526,#527,#528,#529,#530,#531,#532,#533,#534,#535,#536),.UNSPECIFIED.,.T.,
 .F.,(2,2,2,2,2,2,2,2,2,2,2),(-0.125,0.,0.125,0.25,0.375,0.5,0.625,0.75,
0.875,1.,1.125),.UNSPECIFIED.);
#77=B_SPLINE_CURVE_WITH_KNOTS('',3,(#538,#539,#540,#541,#542,#543,#544,
#545,#546,#547,#548,#549,#550,#551),.UNSPECIFIED.,.F.,.F.,(4,2,2,2,2,2,
4),(0.,0.0839470056291226,0.249603971298023,0.435666076698863,0.656589001032286,
0.922734945980924,1.),.UNSPECIFIED.);
#78=ADVANCED_FACE('',(#109,#110),#103,.T.);
#79=ADVANCED_FACE('',(#111,#112),#67,.F.);
#80=ADVANCED_FACE('',(#113,#114),#68,.F.);
#81=ADVANCED_FACE('',(#115,#116),#58,.T.);
#82=ADVANCED_FACE('',(#117,#118),#69,.F.);
#83=ADVANCED_FACE('',(#119,#120),#59,.T.);
#84=ADVANCED_FACE('',(#121,#122),#51,.T.);
#85=ADVANCED_FACE('',(#123,#124),#60,.T.);
#86=ADVANCED_FACE('',(#125,#126),#52,.T.);
#87=ADVANCED_FACE('',(#127,#128),#61,.T.);
#88=ADVANCED_FACE('',(#129,#130),#53,.T.);
#89=ADVANCED_FACE('',(#131,#132),#62,.T.);
#90=ADVANCED_FACE('',(#133,#134),#104,.T.);
#91=ADVANCED_FACE('',(#135,#136),#54,.T.);
#92=ADVANCED_FACE('',(#137,#138),#63,.T.);
#93=ADVANCED_FACE('',(#139,#140),#55,.T.);
#94=ADVANCED_FACE('',(#141,#142),#64,.T.);
#95=ADVANCED_FACE('',(#143,#144),#56,.T.);
#96=ADVANCED_FACE('',(#47),#105,.F.);
#97=ADVANCED_FACE('',(#48),#106,.F.);
#98=ADVANCED_FACE('',(#145,#146),#65,.F.);
#99=ADVANCED_FACE('',(#49),#107,.T.);
#100=ADVANCED_FACE('',(#50),#108,.T.);
#101=ADVANCED_FACE('',(#147,#148),#57,.T.);
#102=ADVANCED_FACE('',(#149,#150),#66,.T.);
#103=PLANE('',#336);
#104=PLANE('',#355);
#105=PLANE('',#366);
#106=PLANE('',#368);
#107=PLANE('',#371);
#108=PLANE('',#373);
#109=FACE_BOUND('',#151,.T.);
#110=FACE_BOUND('',#152,.T.);
#111=FACE_BOUND('',#153,.T.);
#112=FACE_BOUND('',#154,.T.);
#113=FACE_BOUND('',#155,.T.);
#114=FACE_BOUND('',#156,.T.);
#115=FACE_BOUND('',#157,.T.);
#116=FACE_BOUND('',#158,.T.);
#117=FACE_BOUND('',#159,.T.);
#118=FACE_BOUND('',#160,.T.);
#119=FACE_BOUND('',#161,.T.);
#120=FACE_BOUND('',#162,.T.);
#121=FACE_BOUND('',#163,.T.);
#122=FACE_BOUND('',#164,.T.);
#123=FACE_BOUND('',#165,.T.);
#124=FACE_BOUND('',#166,.T.);
#125=FACE_BOUND('',#167,.T.);
#126=FACE_BOUND('',#168,.T.);
#127=FACE_BOUND('',#169,.T.);
#128=FACE_BOUND('',#170,.T.);
#129=FACE_BOUND('',#171,.T.);
#130=FACE_BOUND('',#172,.T.);
#131=FACE_BOUND('',#173,.T.);
#132=FACE_BOUND('',#174,.T.);
#133=FACE_BOUND('',#175,.T.);
#134=FACE_BOUND('',#176,.T.);
#135=FACE_BOUND('',#177,.T.);
#136=FACE_BOUND('',#178,.T.);
#137=FACE_BOUND('',#179,.T.);
#138=FACE_BOUND('',#180,.T.);
#139=FACE_BOUND('',#181,.T.);
#140=FACE_BOUND('',#182,.T.);
#141=FACE_BOUND('',#183,.T.);
#142=FACE_BOUND('',#184,.T.);
#143=FACE_BOUND('',#185,.T.);
#144=FACE_BOUND('',#186,.T.);
#145=FACE_BOUND('',#189,.T.);
#146=FACE_BOUND('',#190,.T.);
#147=FACE_BOUND('',#193,.T.);
#148=FACE_BOUND('',#194,.T.);
#149=FACE_BOUND('',#195,.T.);
#150=FACE_BOUND('',#196,.T.);
#151=EDGE_LOOP('',(#197));
#152=EDGE_LOOP('',(#198));
#153=EDGE_LOOP('',(#199));
#154=EDGE_LOOP('',(#200));
#155=EDGE_LOOP('',(#201));
#156=EDGE_LOOP('',(#202));
#157=EDGE_LOOP('',(#203));
#158=EDGE_LOOP('',(#204));
#159=EDGE_LOOP('',(#205));
#160=EDGE_LOOP('',(#206));
#161=EDGE_LOOP('',(#207));
#162=EDGE_LOOP('',(#208));
#163=EDGE_LOOP('',(#209));
#164=EDGE_LOOP('',(#210));
#165=EDGE_LOOP('',(#211));
#166=EDGE_LOOP('',(#212));
#167=EDGE_LOOP('',(#213));
#168=EDGE_LOOP('',(#214));
#169=EDGE_LOOP('',(#215));
#170=EDGE_LOOP('',(#216));
#171=EDGE_LOOP('',(#217));
#172=EDGE_LOOP('',(#218));
#173=EDGE_LOOP('',(#219));
#174=EDGE_LOOP('',(#220));
#175=EDGE_LOOP('',(#221));
#176=EDGE_LOOP('',(#222));
#177=EDGE_LOOP('',(#223));
#178=EDGE_LOOP('',(#224));
#179=EDGE_LOOP('',(#225));
#180=EDGE_LOOP('',(#226));
#181=EDGE_LOOP('',(#227));
#182=EDGE_LOOP('',(#228));
#183=EDGE_LOOP('',(#229));
#184=EDGE_LOOP('',(#230));
#185=EDGE_LOOP('',(#231));
#186=EDGE_LOOP('',(#232));
#187=EDGE_LOOP('',(#233));
#188=EDGE_LOOP('',(#234));
#189=EDGE_LOOP('',(#235));
#190=EDGE_LOOP('',(#236));
#191=EDGE_LOOP('',(#237));
#192=EDGE_LOOP('',(#238));
#193=EDGE_LOOP('',(#239));
#194=EDGE_LOOP('',(#240));
#195=EDGE_LOOP('',(#241));
#196=EDGE_LOOP('',(#242));
#197=ORIENTED_EDGE('',*,*,#266,.T.);
#198=ORIENTED_EDGE('',*,*,#267,.F.);
#199=ORIENTED_EDGE('',*,*,#267,.T.);
#200=ORIENTED_EDGE('',*,*,#268,.F.);
#201=ORIENTED_EDGE('',*,*,#268,.T.);
#202=ORIENTED_EDGE('',*,*,#269,.F.);
#203=ORIENTED_EDGE('',*,*,#269,.T.);
#204=ORIENTED_EDGE('',*,*,#270,.F.);
#205=ORIENTED_EDGE('',*,*,#270,.T.);
#206=ORIENTED_EDGE('',*,*,#271,.F.);
#207=ORIENTED_EDGE('',*,*,#271,.T.);
#208=ORIENTED_EDGE('',*,*,#272,.F.);
#209=ORIENTED_EDGE('',*,*,#272,.T.);
#210=ORIENTED_EDGE('',*,*,#273,.F.);
#211=ORIENTED_EDGE('',*,*,#273,.T.);
#212=ORIENTED_EDGE('',*,*,#274,.F.);
#213=ORIENTED_EDGE('',*,*,#274,.T.);
#214=ORIENTED_EDGE('',*,*,#275,.F.);
#215=ORIENTED_EDGE('',*,*,#275,.T.);
#216=ORIENTED_EDGE('',*,*,#276,.F.);
#217=ORIENTED_EDGE('',*,*,#276,.T.);
#218=ORIENTED_EDGE('',*,*,#277,.F.);
#219=ORIENTED_EDGE('',*,*,#277,.T.);
#220=ORIENTED_EDGE('',*,*,#278,.F.);
#221=ORIENTED_EDGE('',*,*,#278,.T.);
#222=ORIENTED_EDGE('',*,*,#279,.F.);
#223=ORIENTED_EDGE('',*,*,#279,.T.);
#224=ORIENTED_EDGE('',*,*,#280,.F.);
#225=ORIENTED_EDGE('',*,*,#280,.T.);
#226=ORIENTED_EDGE('',*,*,#281,.F.);
#227=ORIENTED_EDGE('',*,*,#281,.T.);
#228=ORIENTED_EDGE('',*,*,#282,.F.);
#229=ORIENTED_EDGE('',*,*,#282,.T.);
#230=ORIENTED_EDGE('',*,*,#283,.F.);
#231=ORIENTED_EDGE('',*,*,#283,.T.);
#232=ORIENTED_EDGE('',*,*,#284,.F.);
#233=ORIENTED_EDGE('',*,*,#284,.T.);
#234=ORIENTED_EDGE('',*,*,#285,.T.);
#235=ORIENTED_EDGE('',*,*,#285,.F.);
#236=ORIENTED_EDGE('',*,*,#266,.F.);
#237=ORIENTED_EDGE('',*,*,#286,.F.);
#238=ORIENTED_EDGE('',*,*,#287,.T.);
#239=ORIENTED_EDGE('',*,*,#288,.T.);
#240=ORIENTED_EDGE('',*,*,#287,.F.);
#241=ORIENTED_EDGE('',*,*,#286,.T.);
#242=ORIENTED_EDGE('',*,*,#288,.F.);
#243=VERTEX_POINT('',#479);
#244=VERTEX_POINT('',#481);
#245=VERTEX_POINT('',#484);
#246=VERTEX_POINT('',#508);
#247=VERTEX_POINT('',#517);
#248=VERTEX_POINT('',#537);
#249=VERTEX_POINT('',#554);
#250=VERTEX_POINT('',#557);
#251=VERTEX_POINT('',#560);
#252=VERTEX_POINT('',#563);
#253=VERTEX_POINT('',#566);
#254=VERTEX_POINT('',#569);
#255=VERTEX_POINT('',#572);
#256=VERTEX_POINT('',#575);
#257=VERTEX_POINT('',#578);
#258=VERTEX_POINT('',#581);
#259=VERTEX_POINT('',#584);
#260=VERTEX_POINT('',#587);
#261=VERTEX_POINT('',#590);
#262=VERTEX_POINT('',#594);
#263=VERTEX_POINT('',#598);
#264=VERTEX_POINT('',#601);
#265=VERTEX_POINT('',#604);
#266=EDGE_CURVE('',#243,#243,#289,.T.);
#267=EDGE_CURVE('',#244,#244,#290,.T.);
#268=EDGE_CURVE('',#245,#245,#291,.T.);
#269=EDGE_CURVE('',#246,#246,#74,.T.);
#270=EDGE_CURVE('',#247,#247,#292,.T.);
#271=EDGE_CURVE('',#248,#248,#76,.T.);
#272=EDGE_CURVE('',#249,#249,#293,.T.);
#273=EDGE_CURVE('',#250,#250,#294,.T.);
#274=EDGE_CURVE('',#251,#251,#295,.T.);
#275=EDGE_CURVE('',#252,#252,#296,.T.);
#276=EDGE_CURVE('',#253,#253,#297,.T.);
#277=EDGE_CURVE('',#254,#254,#298,.T.);
#278=EDGE_CURVE('',#255,#255,#299,.T.);
#279=EDGE_CURVE('',#256,#256,#300,.T.);
#280=EDGE_CURVE('',#257,#257,#301,.T.);
#281=EDGE_CURVE('',#258,#258,#302,.T.);
#282=EDGE_CURVE('',#259,#259,#303,.T.);
#283=EDGE_CURVE('',#260,#260,#304,.T.);
#284=EDGE_CURVE('',#261,#261,#305,.T.);
#285=EDGE_CURVE('',#262,#262,#306,.T.);
#286=EDGE_CURVE('',#263,#263,#307,.T.);
#287=EDGE_CURVE('',#264,#264,#308,.T.);
#288=EDGE_CURVE('',#265,#265,#309,.T.);
#289=CIRCLE('',#334,3.);
#290=CIRCLE('',#335,4.18075141559959);
#291=CIRCLE('',#337,4.30362408392476);
#292=CIRCLE('',#338,4.35692546896671);
#293=CIRCLE('',#340,4.49999999999995);
#294=CIRCLE('',#342,4.27971768019819);
#295=CIRCLE('',#344,4.27971768019819);
#296=CIRCLE('',#346,4.4499999999999);
#297=CIRCLE('',#348,4.4499999999999);
#298=CIRCLE('',#350,4.74999999999998);
#299=CIRCLE('',#352,4.74999999999998);
#300=CIRCLE('',#354,6.69059892324144);
#301=CIRCLE('',#356,8.99999999999995);
#302=CIRCLE('',#358,8.99999999999995);
#303=CIRCLE('',#360,7.49999999999995);
#304=CIRCLE('',#362,7.49999999999995);
#305=CIRCLE('',#364,7.99999999999995);
#306=CIRCLE('',#367,3.);
#307=CIRCLE('',#370,7.99999999999995);
#308=CIRCLE('',#372,7.42831216351292);
#309=CIRCLE('',#374,7.99999999999995);
#310=PRESENTATION_LAYER_ASSIGNMENT('1','Layer 1',(#331,#332,#333,#44));
#311=PRESENTATION_LAYER_ASSIGNMENT('2','Layer 2',(#43));
#312=STYLED_ITEM('',(#317),#331);
#313=STYLED_ITEM('',(#318),#332);
#314=STYLED_ITEM('',(#319),#333);
#315=STYLED_ITEM('',(#320),#43);
#316=STYLED_ITEM('',(#321),#44);
#317=PRESENTATION_STYLE_ASSIGNMENT((#322));
#318=PRESENTATION_STYLE_ASSIGNMENT((#323));
#319=PRESENTATION_STYLE_ASSIGNMENT((#324));
#320=PRESENTATION_STYLE_ASSIGNMENT((#33));
#321=PRESENTATION_STYLE_ASSIGNMENT((#34));
#322=CURVE_STYLE('',#327,POSITIVE_LENGTH_MEASURE(0.18),#325);
#323=CURVE_STYLE('',#328,POSITIVE_LENGTH_MEASURE(0.18),#325);
#324=CURVE_STYLE('',#329,POSITIVE_LENGTH_MEASURE(0.18),#325);
#325=COLOUR_RGB('Strong Stone',0.576470588235294,0.54508278019379,0.392156862745098);
#326=COLOUR_RGB('Medium Gray',0.490196078431373,0.490196078431373,0.490196078431373);
#327=DRAUGHTING_PRE_DEFINED_CURVE_FONT('continuous');
#328=DRAUGHTING_PRE_DEFINED_CURVE_FONT('continuous');
#329=DRAUGHTING_PRE_DEFINED_CURVE_FONT('continuous');
#330=AXIS2_PLACEMENT_3D('',#474,#377,#378);
#331=AXIS2_PLACEMENT_3D('MCS',#475,#379,#380);
#332=AXIS2_PLACEMENT_3D('PCS',#476,#381,#382);
#333=AXIS2_PLACEMENT_3D('CSW',#477,#383,#384);
#334=AXIS2_PLACEMENT_3D('',#478,#385,#386);
#335=AXIS2_PLACEMENT_3D('',#480,#387,#388);
#336=AXIS2_PLACEMENT_3D('',#482,#389,#390);
#337=AXIS2_PLACEMENT_3D('',#483,#391,#392);
#338=AXIS2_PLACEMENT_3D('',#516,#395,#396);
#339=AXIS2_PLACEMENT_3D('',#518,#397,#398);
#340=AXIS2_PLACEMENT_3D('',#553,#400,#401);
#341=AXIS2_PLACEMENT_3D('',#555,#402,#403);
#342=AXIS2_PLACEMENT_3D('',#556,#404,#405);
#343=AXIS2_PLACEMENT_3D('',#558,#406,#407);
#344=AXIS2_PLACEMENT_3D('',#559,#408,#409);
#345=AXIS2_PLACEMENT_3D('',#561,#410,#411);
#346=AXIS2_PLACEMENT_3D('',#562,#412,#413);
#347=AXIS2_PLACEMENT_3D('',#564,#414,#415);
#348=AXIS2_PLACEMENT_3D('',#565,#416,#417);
#349=AXIS2_PLACEMENT_3D('',#567,#418,#419);
#350=AXIS2_PLACEMENT_3D('',#568,#420,#421);
#351=AXIS2_PLACEMENT_3D('',#570,#422,#423);
#352=AXIS2_PLACEMENT_3D('',#571,#424,#425);
#353=AXIS2_PLACEMENT_3D('',#573,#426,#427);
#354=AXIS2_PLACEMENT_3D('',#574,#428,#429);
#355=AXIS2_PLACEMENT_3D('',#576,#430,#431);
#356=AXIS2_PLACEMENT_3D('',#577,#432,#433);
#357=AXIS2_PLACEMENT_3D('',#579,#434,#435);
#358=AXIS2_PLACEMENT_3D('',#580,#436,#437);
#359=AXIS2_PLACEMENT_3D('',#582,#438,#439);
#360=AXIS2_PLACEMENT_3D('',#583,#440,#441);
#361=AXIS2_PLACEMENT_3D('',#585,#442,#443);
#362=AXIS2_PLACEMENT_3D('',#586,#444,#445);
#363=AXIS2_PLACEMENT_3D('',#588,#446,#447);
#364=AXIS2_PLACEMENT_3D('',#589,#448,#449);
#365=AXIS2_PLACEMENT_3D('',#591,#450,#451);
#366=AXIS2_PLACEMENT_3D('',#592,#452,#453);
#367=AXIS2_PLACEMENT_3D('',#593,#454,#455);
#368=AXIS2_PLACEMENT_3D('',#595,#456,#457);
#369=AXIS2_PLACEMENT_3D('',#596,#458,#459);
#370=AXIS2_PLACEMENT_3D('',#597,#460,#461);
#371=AXIS2_PLACEMENT_3D('',#599,#462,#463);
#372=AXIS2_PLACEMENT_3D('',#600,#464,#465);
#373=AXIS2_PLACEMENT_3D('',#602,#466,#467);
#374=AXIS2_PLACEMENT_3D('',#603,#468,#469);
#375=AXIS2_PLACEMENT_3D('',#605,#470,#471);
#376=AXIS2_PLACEMENT_3D('',#606,#472,#473);
#377=DIRECTION('',(0.,0.,1.));
#378=DIRECTION('',(1.,0.,0.));
#379=DIRECTION('',(0.,0.,1.));
#380=DIRECTION('',(1.,0.,0.));
#381=DIRECTION('',(0.,0.,1.));
#382=DIRECTION('',(1.,0.,0.));
#383=DIRECTION('',(0.,0.,1.));
#384=DIRECTION('',(1.,0.,0.));
#385=DIRECTION('',(0.,0.,1.));
#386=DIRECTION('',(1.,0.,0.));
#387=DIRECTION('',(0.,0.,1.));
#388=DIRECTION('',(1.,0.,0.));
#389=DIRECTION('',(0.,0.,-1.));
#390=DIRECTION('',(-1.,0.,0.));
#391=DIRECTION('',(0.,0.,1.));
#392=DIRECTION('',(1.,0.,0.));
#393=DIRECTION('',(0.,0.,1.));
#394=DIRECTION('',(0.,0.,1.));
#395=DIRECTION('',(0.,0.,1.));
#396=DIRECTION('',(1.,0.,0.));
#397=DIRECTION('',(0.,0.,1.));
#398=DIRECTION('',(1.,0.,0.));
#399=DIRECTION('',(0.,0.,1.));
#400=DIRECTION('',(0.,0.,1.));
#401=DIRECTION('',(1.,0.,0.));
#402=DIRECTION('',(0.,0.,1.));
#403=DIRECTION('',(1.,0.,0.));
#404=DIRECTION('',(0.,0.,1.));
#405=DIRECTION('',(1.,0.,0.));
#406=DIRECTION('',(0.,0.,-1.));
#407=DIRECTION('',(-1.,0.,1.96638893448041E-17));
#408=DIRECTION('',(0.,0.,1.));
#409=DIRECTION('',(1.,0.,0.));
#410=DIRECTION('',(0.,0.,1.));
#411=DIRECTION('',(1.,0.,0.));
#412=DIRECTION('',(0.,0.,1.));
#413=DIRECTION('',(1.,0.,0.));
#414=DIRECTION('',(0.,0.,1.));
#415=DIRECTION('',(1.,0.,-1.3108556715739E-17));
#416=DIRECTION('',(0.,0.,1.));
#417=DIRECTION('',(1.,0.,0.));
#418=DIRECTION('',(0.,0.,1.));
#419=DIRECTION('',(1.,0.,0.));
#420=DIRECTION('',(0.,0.,1.));
#421=DIRECTION('',(1.,0.,0.));
#422=DIRECTION('',(0.,0.,1.));
#423=DIRECTION('',(1.,0.,-7.99043145726883E-18));
#424=DIRECTION('',(0.,0.,1.));
#425=DIRECTION('',(1.,0.,0.));
#426=DIRECTION('',(0.,0.,1.));
#427=DIRECTION('',(1.,0.,0.));
#428=DIRECTION('',(0.,0.,1.));
#429=DIRECTION('',(-1.,0.,0.));
#430=DIRECTION('',(0.,0.,-1.));
#431=DIRECTION('',(-1.,0.,0.));
#432=DIRECTION('',(0.,0.,1.));
#433=DIRECTION('',(1.,0.,0.));
#434=DIRECTION('',(0.,0.,1.));
#435=DIRECTION('',(1.,0.,5.91702116338857E-18));
#436=DIRECTION('',(0.,0.,1.));
#437=DIRECTION('',(1.,0.,0.));
#438=DIRECTION('',(0.,0.,1.));
#439=DIRECTION('',(1.,0.,0.));
#440=DIRECTION('',(0.,0.,1.));
#441=DIRECTION('',(1.,0.,0.));
#442=DIRECTION('',(0.,0.,-1.));
#443=DIRECTION('',(-1.,0.,-3.26591172796159E-17));
#444=DIRECTION('',(0.,0.,1.));
#445=DIRECTION('',(1.,0.,0.));
#446=DIRECTION('',(0.,0.,1.));
#447=DIRECTION('',(1.,0.,0.));
#448=DIRECTION('',(0.,0.,1.));
#449=DIRECTION('',(-1.,0.,0.));
#450=DIRECTION('',(0.,0.,1.));
#451=DIRECTION('',(1.,0.,0.));
#452=DIRECTION('',(0.,0.,-1.));
#453=DIRECTION('',(1.,0.,0.));
#454=DIRECTION('',(0.,0.,-1.));
#455=DIRECTION('',(1.,0.,0.));
#456=DIRECTION('',(0.,0.,1.));
#457=DIRECTION('',(1.,0.,0.));
#458=DIRECTION('',(0.,0.,1.));
#459=DIRECTION('',(1.,0.,0.));
#460=DIRECTION('',(0.,0.,1.));
#461=DIRECTION('',(-1.,0.,0.));
#462=DIRECTION('',(0.,0.,-1.));
#463=DIRECTION('',(1.,0.,0.));
#464=DIRECTION('',(0.,0.,1.));
#465=DIRECTION('',(1.,0.,0.));
#466=DIRECTION('',(0.,0.,1.));
#467=DIRECTION('',(1.,0.,0.));
#468=DIRECTION('',(0.,0.,1.));
#469=DIRECTION('',(1.,0.,0.));
#470=DIRECTION('',(0.,0.,-1.));
#471=DIRECTION('',(-1.,0.,-8.30609377227258E-17));
#472=DIRECTION('',(0.,0.,1.));
#473=DIRECTION('',(1.,0.,0.));
#474=CARTESIAN_POINT('',(0.,0.,0.));
#475=CARTESIAN_POINT('',(0.,0.,0.));
#476=CARTESIAN_POINT('',(0.,0.,48.0000000000002));
#477=CARTESIAN_POINT('',(0.,0.,-61.9999999999999));
#478=CARTESIAN_POINT('',(0.,0.,-61.9999999999999));
#479=CARTESIAN_POINT('',(3.,0.,-61.9999999999999));
#480=CARTESIAN_POINT('',(0.,0.,-61.9999999999999));
#481=CARTESIAN_POINT('',(4.18075141559959,0.,-61.9999999999999));
#482=CARTESIAN_POINT('',(0.,4.18075141559321,-61.9999999999999));
#483=CARTESIAN_POINT('',(0.,0.,-61.7165063509461));
#484=CARTESIAN_POINT('',(4.30362408392476,0.,-61.7165063509461));
#485=CARTESIAN_POINT('',(0.,4.30362408392437,-61.7165063509461));
#486=CARTESIAN_POINT('',(0.,4.26179498588336,-61.8121086469598));
#487=CARTESIAN_POINT('',(0.,4.22081237500277,-61.9067181972083));
#488=CARTESIAN_POINT('',(0.,4.18075141559959,-61.9999999999999));
#489=CARTESIAN_POINT('',(0.,0.,0.));
#490=CARTESIAN_POINT('',(1.14063840768852,4.35691778073832,-59.8772944381633));
#491=CARTESIAN_POINT('',(-1.14063840768852,4.35691778073832,-59.8772944381633));
#492=CARTESIAN_POINT('',(-2.27425295487393,3.88735926079069,-59.8772944381633));
#493=CARTESIAN_POINT('',(-3.88735926079069,2.27425295487393,-59.8772944381633));
#494=CARTESIAN_POINT('',(-4.35691778073832,1.14063840768852,-59.8772944381633));
#495=CARTESIAN_POINT('',(-4.35691778073832,-1.14063840768852,-59.8772944381633));
#496=CARTESIAN_POINT('',(-3.88735926079069,-2.27425295487393,-59.8772944381633));
#497=CARTESIAN_POINT('',(-2.27425295487393,-3.88735926079069,-59.8772944381633));
#498=CARTESIAN_POINT('',(-1.14063840768852,-4.35691778073832,-59.8772944381633));
#499=CARTESIAN_POINT('',(1.14063840768852,-4.35691778073832,-59.8772944381633));
#500=CARTESIAN_POINT('',(2.27425295487393,-3.88735926079069,-59.8772944381633));
#501=CARTESIAN_POINT('',(3.88735926079069,-2.27425295487393,-59.8772944381633));
#502=CARTESIAN_POINT('',(4.35691778073832,-1.14063840768852,-59.8772944381633));
#503=CARTESIAN_POINT('',(4.35691778073832,1.14063840768852,-59.8772944381633));
#504=CARTESIAN_POINT('',(3.88735926079069,2.27425295487393,-59.8772944381633));
#505=CARTESIAN_POINT('',(2.27425295487393,3.88735926079069,-59.8772944381633));
#506=CARTESIAN_POINT('',(1.14063840768852,4.35691778073832,-59.8772944381633));
#507=CARTESIAN_POINT('',(-1.14063840768852,4.35691778073832,-59.8772944381633));
#508=CARTESIAN_POINT('',(6.66960676791172E-16,4.35690767144543,-59.8772942921342));
#509=CARTESIAN_POINT('',(0.,4.35689761343838,-59.8772923663944));
#510=CARTESIAN_POINT('',(0.,4.34807255471631,-60.1835376965842));
#511=CARTESIAN_POINT('',(0.,4.33921083735328,-60.4899522600665));
#512=CARTESIAN_POINT('',(0.,4.32144434824439,-61.1030447355239));
#513=CARTESIAN_POINT('',(0.,4.31253929416542,-61.4097282656464));
#514=CARTESIAN_POINT('',(0.,4.30362408392476,-61.7165063509461));
#515=CARTESIAN_POINT('',(0.,0.,0.));
#516=CARTESIAN_POINT('',(0.,0.,-39.1499281837184));
#517=CARTESIAN_POINT('',(4.35692546896671,0.,-39.1499281837184));
#518=CARTESIAN_POINT('',(0.,0.,0.));
#519=CARTESIAN_POINT('',(1.17809724509616,4.49999999999995,-37.5176374937873));
#520=CARTESIAN_POINT('',(-1.17809724509616,4.49999999999995,-37.5176374937873));
#521=CARTESIAN_POINT('',(-2.34893996443474,4.01502106624411,-37.5176374937873));
#522=CARTESIAN_POINT('',(-4.01502106624411,2.34893996443474,-37.5176374937873));
#523=CARTESIAN_POINT('',(-4.49999999999995,1.17809724509616,-37.5176374937873));
#524=CARTESIAN_POINT('',(-4.49999999999995,-1.17809724509616,-37.5176374937873));
#525=CARTESIAN_POINT('',(-4.01502106624411,-2.34893996443474,-37.5176374937873));
#526=CARTESIAN_POINT('',(-2.34893996443475,-4.01502106624411,-37.5176374937873));
#527=CARTESIAN_POINT('',(-1.17809724509616,-4.49999999999995,-37.5176374937873));
#528=CARTESIAN_POINT('',(1.17809724509616,-4.49999999999995,-37.5176374937873));
#529=CARTESIAN_POINT('',(2.34893996443475,-4.01502106624411,-37.5176374937873));
#530=CARTESIAN_POINT('',(4.01502106624411,-2.34893996443475,-37.5176374937873));
#531=CARTESIAN_POINT('',(4.49999999999995,-1.17809724509616,-37.5176374937873));
#532=CARTESIAN_POINT('',(4.49999999999995,1.17809724509616,-37.5176374937873));
#533=CARTESIAN_POINT('',(4.01502106624411,2.34893996443474,-37.5176374937873));
#534=CARTESIAN_POINT('',(2.34893996443475,4.01502106624411,-37.5176374937873));
#535=CARTESIAN_POINT('',(1.17809724509616,4.49999999999995,-37.5176374937873));
#536=CARTESIAN_POINT('',(-1.17809724509616,4.49999999999995,-37.5176374937873));
#537=CARTESIAN_POINT('',(6.88863824520378E-16,4.49991215353426,-37.5176348901946));
#538=CARTESIAN_POINT('',(0.,4.49995508045436,-37.5100508983917));
#539=CARTESIAN_POINT('',(0.,4.49998448101807,-37.5211683790041));
#540=CARTESIAN_POINT('',(0.,4.49886143292177,-37.5371710272844));
#541=CARTESIAN_POINT('',(0.,4.49240280646107,-37.5980114380504));
#542=CARTESIAN_POINT('',(0.,4.48403790840274,-37.6566322463121));
#543=CARTESIAN_POINT('',(0.,4.46216728232107,-37.8072683572058));
#544=CARTESIAN_POINT('',(0.,4.44800112064059,-37.9041043426281));
#545=CARTESIAN_POINT('',(0.,4.41777129759885,-38.1361813184891));
#546=CARTESIAN_POINT('',(0.,4.40156467691138,-38.2777785720168));
#547=CARTESIAN_POINT('',(0.,4.37333419128866,-38.6026462192773));
#548=CARTESIAN_POINT('',(0.,4.36253548079646,-38.7925452228605));
#549=CARTESIAN_POINT('',(0.,4.35750871859186,-39.0381605123819));
#550=CARTESIAN_POINT('',(0.,4.35693364778156,-39.0940679022161));
#551=CARTESIAN_POINT('',(0.,4.35693315719504,-39.1499281842579));
#552=CARTESIAN_POINT('',(0.,0.,0.));
#553=CARTESIAN_POINT('',(0.,0.,-37.1105876513901));
#554=CARTESIAN_POINT('',(4.49999999999995,0.,-37.1105876513901));
#555=CARTESIAN_POINT('',(0.,0.,0.));
#556=CARTESIAN_POINT('',(0.,0.,-37.0411329027452));
#557=CARTESIAN_POINT('',(4.27971768019819,0.,-37.0411329027452));
#558=CARTESIAN_POINT('',(0.,0.,-37.0411329027452));
#559=CARTESIAN_POINT('',(0.,0.,-35.0588670972548));
#560=CARTESIAN_POINT('',(4.27971768019819,0.,-35.0588670972548));
#561=CARTESIAN_POINT('',(0.,0.,0.));
#562=CARTESIAN_POINT('',(0.,0.,-35.0051772880537));
#563=CARTESIAN_POINT('',(4.4499999999999,0.,-35.0051772880537));
#564=CARTESIAN_POINT('',(0.,0.,-35.0051772880537));
#565=CARTESIAN_POINT('',(0.,0.,-34.4051772880539));
#566=CARTESIAN_POINT('',(4.4499999999999,0.,-34.4051772880539));
#567=CARTESIAN_POINT('',(0.,0.,0.));
#568=CARTESIAN_POINT('',(0.,0.,-34.231972207297));
#569=CARTESIAN_POINT('',(4.74999999999998,0.,-34.231972207297));
#570=CARTESIAN_POINT('',(0.,0.,-34.231972207297));
#571=CARTESIAN_POINT('',(0.,0.,-12.));
#572=CARTESIAN_POINT('',(4.74999999999998,0.,-12.));
#573=CARTESIAN_POINT('',(0.,0.,0.));
#574=CARTESIAN_POINT('',(0.,0.,-12.));
#575=CARTESIAN_POINT('',(6.69059892324144,0.,-12.));
#576=CARTESIAN_POINT('',(0.,6.97927405783627,-12.));
#577=CARTESIAN_POINT('',(0.,0.,-8.00000000000001));
#578=CARTESIAN_POINT('',(8.99999999999995,0.,-8.00000000000001));
#579=CARTESIAN_POINT('',(0.,0.,-8.00000000000001));
#580=CARTESIAN_POINT('',(0.,0.,-2.36602540378447));
#581=CARTESIAN_POINT('',(8.99999999999995,0.,-2.36602540378447));
#582=CARTESIAN_POINT('',(0.,0.,0.));
#583=CARTESIAN_POINT('',(0.,0.,-1.5));
#584=CARTESIAN_POINT('',(7.49999999999995,0.,-1.5));
#585=CARTESIAN_POINT('',(0.,0.,-1.5));
#586=CARTESIAN_POINT('',(0.,0.,-0.5));
#587=CARTESIAN_POINT('',(7.49999999999995,0.,-0.5));
#588=CARTESIAN_POINT('',(0.,0.,0.));
#589=CARTESIAN_POINT('',(0.,0.,1.98951966012828E-13));
#590=CARTESIAN_POINT('',(-7.99999999999995,0.,1.98951966012828E-13));
#591=CARTESIAN_POINT('',(0.,0.,0.));
#592=CARTESIAN_POINT('',(0.,0.,1.98951966012828E-13));
#593=CARTESIAN_POINT('',(0.,0.,-50.9999999999999));
#594=CARTESIAN_POINT('',(3.,0.,-50.9999999999999));
#595=CARTESIAN_POINT('',(0.,0.,-50.9999999999999));
#596=CARTESIAN_POINT('',(0.,0.,-61.9999999999999));
#597=CARTESIAN_POINT('',(0.,0.,1.98951966012828E-13));
#598=CARTESIAN_POINT('',(-7.99999999999995,0.,1.98951966012828E-13));
#599=CARTESIAN_POINT('',(0.,0.,1.98951966012828E-13));
#600=CARTESIAN_POINT('',(0.,0.,48.0000000000002));
#601=CARTESIAN_POINT('',(7.42831216351292,0.,48.0000000000002));
#602=CARTESIAN_POINT('',(0.,0.,48.0000000000002));
#603=CARTESIAN_POINT('',(0.,0.,47.0098076211354));
#604=CARTESIAN_POINT('',(7.99999999999995,0.,47.0098076211354));
#605=CARTESIAN_POINT('',(0.,0.,48.0000000000002));
#606=CARTESIAN_POINT('',(0.,0.,0.));
#607=MECHANICAL_DESIGN_GEOMETRIC_PRESENTATION_REPRESENTATION('',(#312,#313,
#314,#315,#316),#608);
#608=(
GEOMETRIC_REPRESENTATION_CONTEXT(3)
GLOBAL_UNCERTAINTY_ASSIGNED_CONTEXT((#609))
GLOBAL_UNIT_ASSIGNED_CONTEXT((#615,#611,#610))
REPRESENTATION_CONTEXT('PMX06B-AD-05700-16N1','TOP_LEVEL_ASSEMBLY_PART')
);
#609=UNCERTAINTY_MEASURE_WITH_UNIT(LENGTH_MEASURE(0.0508),#615,
'DISTANCE_ACCURACY_VALUE','Maximum Tolerance applied to model');
#610=(
NAMED_UNIT(*)
SI_UNIT($,.STERADIAN.)
SOLID_ANGLE_UNIT()
);
#611=(
CONVERSION_BASED_UNIT('DEGREE',#613)
NAMED_UNIT(#612)
PLANE_ANGLE_UNIT()
);
#612=DIMENSIONAL_EXPONENTS(0.,0.,0.,0.,0.,0.,0.);
#613=PLANE_ANGLE_MEASURE_WITH_UNIT(PLANE_ANGLE_MEASURE(0.0174532925),#614);
#614=(
NAMED_UNIT(*)
PLANE_ANGLE_UNIT()
SI_UNIT($,.RADIAN.)
);
#615=(
LENGTH_UNIT()
NAMED_UNIT(*)
SI_UNIT(.MILLI.,.METRE.)
);
ENDSEC;
END-ISO-10303-21;
