ISO-10303-21;
HEADER;
/* Generated by software containing ST-Developer
 * from STEP Tools, Inc. (www.steptools.com) 
 */
/* OPTION: using custom schema-name function */

FILE_DESCRIPTION(
/* description */ (''),
/* implementation_level */ '2;1');

FILE_NAME(
/* name */ 'PMX06-12000-12N1.stp',
/* time_stamp */ '2018-03-16T14:54:19+05:00',
/* author */ (''),
/* organization */ (''),
/* preprocessor_version */ 'ST-DEVELOPER v16',
/* originating_system */ 'SIEMENS PLM Software NX 11.0',
/* authorisation */ '');

FILE_SCHEMA (('AUTOMOTIVE_DESIGN { 1 0 10303 214 3 1 1 1 }'));
ENDSEC;

DATA;
#10=CONSTRUCTIVE_GEOMETRY_REPRESENTATION_RELATIONSHIP(
'supplemental geometry','',#32,#11);
#11=CONSTRUCTIVE_GEOMETRY_REPRESENTATION('supplemental geometry',(#265,
#266,#267,#268),#446);
#12=PROPERTY_DEFINITION_REPRESENTATION(#16,#14);
#13=PROPERTY_DEFINITION_REPRESENTATION(#17,#15);
#14=REPRESENTATION('',(#18),#446);
#15=REPRESENTATION('',(#19),#446);
#16=PROPERTY_DEFINITION('pmi validation property','',#23);
#17=PROPERTY_DEFINITION('pmi validation property','',#23);
#18=VALUE_REPRESENTATION_ITEM('number of annotations',COUNT_MEASURE(0.));
#19=VALUE_REPRESENTATION_ITEM('number of views',COUNT_MEASURE(0.));
#20=SHAPE_REPRESENTATION_RELATIONSHIP('None',
'relationship between PMX06-12000-12N1-None and PMX06-12000-12N1-None',
#32,#21);
#21=ADVANCED_BREP_SHAPE_REPRESENTATION('PMX06-12000-12N1-None',(#44,#45),
#446);
#22=SHAPE_DEFINITION_REPRESENTATION(#23,#32);
#23=PRODUCT_DEFINITION_SHAPE('','',#24);
#24=PRODUCT_DEFINITION(' ','',#26,#25);
#25=PRODUCT_DEFINITION_CONTEXT('part definition',#31,'design');
#26=PRODUCT_DEFINITION_FORMATION_WITH_SPECIFIED_SOURCE(' ',' ',#28,
 .NOT_KNOWN.);
#27=PRODUCT_RELATED_PRODUCT_CATEGORY('part','',(#28));
#28=PRODUCT('inpu15CC245Dgb1g','inpu15CC245Dgb1g',' ',(#29));
#29=PRODUCT_CONTEXT(' ',#31,'mechanical');
#30=APPLICATION_PROTOCOL_DEFINITION('international standard',
'automotive_design',2010,#31);
#31=APPLICATION_CONTEXT(
'core data for automotive mechanical design processes');
#32=SHAPE_REPRESENTATION('PMX06-12000-12N1-None',(#264),#446);
#33=TOROIDAL_SURFACE('',#303,17.8513360000001,13.1013360382695);
#34=SURFACE_STYLE_USAGE(.BOTH.,#36);
#35=SURFACE_STYLE_USAGE(.BOTH.,#37);
#36=SURFACE_SIDE_STYLE('',(#38));
#37=SURFACE_SIDE_STYLE('',(#39));
#38=SURFACE_STYLE_FILL_AREA(#40);
#39=SURFACE_STYLE_FILL_AREA(#41);
#40=FILL_AREA_STYLE('',(#42));
#41=FILL_AREA_STYLE('',(#43));
#42=FILL_AREA_STYLE_COLOUR('',#259);
#43=FILL_AREA_STYLE_COLOUR('',#259);
#44=MANIFOLD_SOLID_BREP('NOCUT',#46);
#45=MANIFOLD_SOLID_BREP('NOCUT',#47);
#46=CLOSED_SHELL('',(#89,#90,#91,#92));
#47=CLOSED_SHELL('',(#93,#94,#95,#96,#97,#98,#99,#100,#101,#102,#103,#104,
#105,#106,#107));
#48=CYLINDRICAL_SURFACE('',#275,6.0000000000001);
#49=CYLINDRICAL_SURFACE('',#278,4.89999999999999);
#50=CYLINDRICAL_SURFACE('',#285,4.5);
#51=CYLINDRICAL_SURFACE('',#291,3.);
#52=CYLINDRICAL_SURFACE('',#297,4.45000000000002);
#53=CYLINDRICAL_SURFACE('',#301,4.74999998086531);
#54=CONICAL_SURFACE('',#274,4.965,45.0000000000025);
#55=CONICAL_SURFACE('',#283,4.5,29.9999488853515);
#56=CONICAL_SURFACE('',#288,4.89999999999999,15.0000431707571);
#57=CONICAL_SURFACE('',#293,4.7660260000001,14.999936255358);
#58=CONICAL_SURFACE('',#299,4.75,60.0000115675726);
#59=FACE_BOUND('',#121,.T.);
#60=FACE_BOUND('',#122,.T.);
#61=FACE_BOUND('',#123,.T.);
#62=FACE_BOUND('',#124,.T.);
#63=FACE_BOUND('',#125,.T.);
#64=FACE_BOUND('',#126,.T.);
#65=FACE_BOUND('',#127,.T.);
#66=FACE_BOUND('',#128,.T.);
#67=FACE_BOUND('',#129,.T.);
#68=FACE_BOUND('',#130,.T.);
#69=FACE_BOUND('',#131,.T.);
#70=FACE_BOUND('',#132,.T.);
#71=FACE_BOUND('',#133,.T.);
#72=FACE_BOUND('',#134,.T.);
#73=FACE_BOUND('',#135,.T.);
#74=FACE_BOUND('',#136,.T.);
#75=FACE_BOUND('',#138,.T.);
#76=FACE_BOUND('',#139,.T.);
#77=FACE_BOUND('',#140,.T.);
#78=FACE_BOUND('',#141,.T.);
#79=FACE_BOUND('',#142,.T.);
#80=FACE_BOUND('',#143,.T.);
#81=FACE_BOUND('',#144,.T.);
#82=FACE_BOUND('',#145,.T.);
#83=FACE_BOUND('',#146,.T.);
#84=FACE_BOUND('',#147,.T.);
#85=FACE_BOUND('',#148,.T.);
#86=FACE_BOUND('',#149,.T.);
#87=FACE_BOUND('',#150,.T.);
#88=FACE_BOUND('',#151,.T.);
#89=ADVANCED_FACE('',(#115),#108,.T.);
#90=ADVANCED_FACE('',(#116),#109,.F.);
#91=ADVANCED_FACE('',(#59,#60),#54,.T.);
#92=ADVANCED_FACE('',(#61,#62),#48,.T.);
#93=ADVANCED_FACE('',(#63,#64),#49,.T.);
#94=ADVANCED_FACE('',(#65,#66),#110,.F.);
#95=ADVANCED_FACE('',(#67,#68),#55,.T.);
#96=ADVANCED_FACE('',(#69,#70),#50,.T.);
#97=ADVANCED_FACE('',(#71,#72),#111,.F.);
#98=ADVANCED_FACE('',(#73,#74),#56,.T.);
#99=ADVANCED_FACE('',(#117),#112,.F.);
#100=ADVANCED_FACE('',(#75,#76),#51,.F.);
#101=ADVANCED_FACE('',(#77,#78),#57,.T.);
#102=ADVANCED_FACE('',(#79,#80),#113,.T.);
#103=ADVANCED_FACE('',(#81,#82),#52,.T.);
#104=ADVANCED_FACE('',(#83,#84),#58,.T.);
#105=ADVANCED_FACE('',(#85,#86),#53,.T.);
#106=ADVANCED_FACE('',(#87,#88),#33,.F.);
#107=ADVANCED_FACE('',(#118),#114,.T.);
#108=PLANE('',#270);
#109=PLANE('',#272);
#110=PLANE('',#281);
#111=PLANE('',#287);
#112=PLANE('',#290);
#113=PLANE('',#295);
#114=PLANE('',#304);
#115=FACE_OUTER_BOUND('',#119,.T.);
#116=FACE_OUTER_BOUND('',#120,.T.);
#117=FACE_OUTER_BOUND('',#137,.T.);
#118=FACE_OUTER_BOUND('',#152,.T.);
#119=EDGE_LOOP('',(#153));
#120=EDGE_LOOP('',(#154));
#121=EDGE_LOOP('',(#155));
#122=EDGE_LOOP('',(#156));
#123=EDGE_LOOP('',(#157));
#124=EDGE_LOOP('',(#158));
#125=EDGE_LOOP('',(#159));
#126=EDGE_LOOP('',(#160));
#127=EDGE_LOOP('',(#161));
#128=EDGE_LOOP('',(#162));
#129=EDGE_LOOP('',(#163));
#130=EDGE_LOOP('',(#164));
#131=EDGE_LOOP('',(#165));
#132=EDGE_LOOP('',(#166));
#133=EDGE_LOOP('',(#167));
#134=EDGE_LOOP('',(#168));
#135=EDGE_LOOP('',(#169));
#136=EDGE_LOOP('',(#170));
#137=EDGE_LOOP('',(#171));
#138=EDGE_LOOP('',(#172));
#139=EDGE_LOOP('',(#173));
#140=EDGE_LOOP('',(#174));
#141=EDGE_LOOP('',(#175));
#142=EDGE_LOOP('',(#176));
#143=EDGE_LOOP('',(#177));
#144=EDGE_LOOP('',(#178));
#145=EDGE_LOOP('',(#179));
#146=EDGE_LOOP('',(#180));
#147=EDGE_LOOP('',(#181));
#148=EDGE_LOOP('',(#182));
#149=EDGE_LOOP('',(#183));
#150=EDGE_LOOP('',(#184));
#151=EDGE_LOOP('',(#185));
#152=EDGE_LOOP('',(#186));
#153=ORIENTED_EDGE('',*,*,#204,.T.);
#154=ORIENTED_EDGE('',*,*,#205,.F.);
#155=ORIENTED_EDGE('',*,*,#206,.F.);
#156=ORIENTED_EDGE('',*,*,#205,.T.);
#157=ORIENTED_EDGE('',*,*,#204,.F.);
#158=ORIENTED_EDGE('',*,*,#206,.T.);
#159=ORIENTED_EDGE('',*,*,#207,.F.);
#160=ORIENTED_EDGE('',*,*,#208,.F.);
#161=ORIENTED_EDGE('',*,*,#209,.T.);
#162=ORIENTED_EDGE('',*,*,#210,.T.);
#163=ORIENTED_EDGE('',*,*,#210,.F.);
#164=ORIENTED_EDGE('',*,*,#211,.T.);
#165=ORIENTED_EDGE('',*,*,#211,.F.);
#166=ORIENTED_EDGE('',*,*,#212,.T.);
#167=ORIENTED_EDGE('',*,*,#212,.F.);
#168=ORIENTED_EDGE('',*,*,#213,.T.);
#169=ORIENTED_EDGE('',*,*,#213,.F.);
#170=ORIENTED_EDGE('',*,*,#207,.T.);
#171=ORIENTED_EDGE('',*,*,#214,.T.);
#172=ORIENTED_EDGE('',*,*,#214,.F.);
#173=ORIENTED_EDGE('',*,*,#209,.F.);
#174=ORIENTED_EDGE('',*,*,#208,.T.);
#175=ORIENTED_EDGE('',*,*,#215,.F.);
#176=ORIENTED_EDGE('',*,*,#215,.T.);
#177=ORIENTED_EDGE('',*,*,#216,.F.);
#178=ORIENTED_EDGE('',*,*,#216,.T.);
#179=ORIENTED_EDGE('',*,*,#217,.F.);
#180=ORIENTED_EDGE('',*,*,#217,.T.);
#181=ORIENTED_EDGE('',*,*,#218,.F.);
#182=ORIENTED_EDGE('',*,*,#218,.T.);
#183=ORIENTED_EDGE('',*,*,#219,.F.);
#184=ORIENTED_EDGE('',*,*,#219,.T.);
#185=ORIENTED_EDGE('',*,*,#220,.F.);
#186=ORIENTED_EDGE('',*,*,#220,.T.);
#187=VERTEX_POINT('',#393);
#188=VERTEX_POINT('',#396);
#189=VERTEX_POINT('',#399);
#190=VERTEX_POINT('',#403);
#191=VERTEX_POINT('',#405);
#192=VERTEX_POINT('',#408);
#193=VERTEX_POINT('',#410);
#194=VERTEX_POINT('',#413);
#195=VERTEX_POINT('',#416);
#196=VERTEX_POINT('',#419);
#197=VERTEX_POINT('',#423);
#198=VERTEX_POINT('',#427);
#199=VERTEX_POINT('',#430);
#200=VERTEX_POINT('',#433);
#201=VERTEX_POINT('',#436);
#202=VERTEX_POINT('',#439);
#203=VERTEX_POINT('',#442);
#204=EDGE_CURVE('',#187,#187,#221,.T.);
#205=EDGE_CURVE('',#188,#188,#222,.T.);
#206=EDGE_CURVE('',#189,#189,#223,.T.);
#207=EDGE_CURVE('',#190,#190,#224,.T.);
#208=EDGE_CURVE('',#191,#191,#225,.T.);
#209=EDGE_CURVE('',#192,#192,#226,.T.);
#210=EDGE_CURVE('',#193,#193,#227,.T.);
#211=EDGE_CURVE('',#194,#194,#228,.T.);
#212=EDGE_CURVE('',#195,#195,#229,.T.);
#213=EDGE_CURVE('',#196,#196,#230,.T.);
#214=EDGE_CURVE('',#197,#197,#231,.T.);
#215=EDGE_CURVE('',#198,#198,#232,.T.);
#216=EDGE_CURVE('',#199,#199,#233,.T.);
#217=EDGE_CURVE('',#200,#200,#234,.T.);
#218=EDGE_CURVE('',#201,#201,#235,.T.);
#219=EDGE_CURVE('',#202,#202,#236,.T.);
#220=EDGE_CURVE('',#203,#203,#237,.T.);
#221=CIRCLE('',#269,6.0000000000001);
#222=CIRCLE('',#271,4.965);
#223=CIRCLE('',#273,6.0000000000001);
#224=CIRCLE('',#276,4.89999999999999);
#225=CIRCLE('',#277,4.90000000000001);
#226=CIRCLE('',#279,3.);
#227=CIRCLE('',#280,4.336325);
#228=CIRCLE('',#282,4.5);
#229=CIRCLE('',#284,4.5);
#230=CIRCLE('',#286,4.766025);
#231=CIRCLE('',#289,3.);
#232=CIRCLE('',#292,4.7660260000001);
#233=CIRCLE('',#294,4.45000000000006);
#234=CIRCLE('',#296,4.45000000000002);
#235=CIRCLE('',#298,4.75);
#236=CIRCLE('',#300,4.74999996173062);
#237=CIRCLE('',#302,6.);
#238=INVISIBILITY((#245));
#239=DRAUGHTING_PRE_DEFINED_COLOUR('red');
#240=PRESENTATION_LAYER_ASSIGNMENT('1','Layer 1',(#265,#266,#267,#268,#44));
#241=PRESENTATION_LAYER_ASSIGNMENT('2','Layer 2',(#45));
#242=STYLED_ITEM('',(#248),#265);
#243=STYLED_ITEM('',(#249),#266);
#244=STYLED_ITEM('',(#250),#267);
#245=STYLED_ITEM('',(#251),#268);
#246=STYLED_ITEM('',(#252),#44);
#247=STYLED_ITEM('',(#253),#45);
#248=PRESENTATION_STYLE_ASSIGNMENT((#254));
#249=PRESENTATION_STYLE_ASSIGNMENT((#255));
#250=PRESENTATION_STYLE_ASSIGNMENT((#256));
#251=PRESENTATION_STYLE_ASSIGNMENT((#257));
#252=PRESENTATION_STYLE_ASSIGNMENT((#34));
#253=PRESENTATION_STYLE_ASSIGNMENT((#35));
#254=CURVE_STYLE('',#260,POSITIVE_LENGTH_MEASURE(0.18),#258);
#255=CURVE_STYLE('',#261,POSITIVE_LENGTH_MEASURE(0.18),#258);
#256=CURVE_STYLE('',#262,POSITIVE_LENGTH_MEASURE(0.18),#258);
#257=CURVE_STYLE('',#263,POSITIVE_LENGTH_MEASURE(0.13),#239);
#258=COLOUR_RGB('Strong Stone',0.576470588235294,0.54508278019379,0.392156862745098);
#259=COLOUR_RGB('Medium Gray',0.490196078431373,0.490196078431373,0.490196078431373);
#260=DRAUGHTING_PRE_DEFINED_CURVE_FONT('continuous');
#261=DRAUGHTING_PRE_DEFINED_CURVE_FONT('continuous');
#262=DRAUGHTING_PRE_DEFINED_CURVE_FONT('continuous');
#263=DRAUGHTING_PRE_DEFINED_CURVE_FONT('continuous');
#264=AXIS2_PLACEMENT_3D('',#387,#305,#306);
#265=AXIS2_PLACEMENT_3D('MCS',#388,#307,#308);
#266=AXIS2_PLACEMENT_3D('PCS',#389,#309,#310);
#267=AXIS2_PLACEMENT_3D('CSW',#390,#311,#312);
#268=AXIS2_PLACEMENT_3D('',#391,#313,#314);
#269=AXIS2_PLACEMENT_3D('',#392,#315,#316);
#270=AXIS2_PLACEMENT_3D('',#394,#317,#318);
#271=AXIS2_PLACEMENT_3D('',#395,#319,#320);
#272=AXIS2_PLACEMENT_3D('',#397,#321,#322);
#273=AXIS2_PLACEMENT_3D('',#398,#323,#324);
#274=AXIS2_PLACEMENT_3D('',#400,#325,#326);
#275=AXIS2_PLACEMENT_3D('',#401,#327,#328);
#276=AXIS2_PLACEMENT_3D('',#402,#329,#330);
#277=AXIS2_PLACEMENT_3D('',#404,#331,#332);
#278=AXIS2_PLACEMENT_3D('',#406,#333,#334);
#279=AXIS2_PLACEMENT_3D('',#407,#335,#336);
#280=AXIS2_PLACEMENT_3D('',#409,#337,#338);
#281=AXIS2_PLACEMENT_3D('',#411,#339,#340);
#282=AXIS2_PLACEMENT_3D('',#412,#341,#342);
#283=AXIS2_PLACEMENT_3D('',#414,#343,#344);
#284=AXIS2_PLACEMENT_3D('',#415,#345,#346);
#285=AXIS2_PLACEMENT_3D('',#417,#347,#348);
#286=AXIS2_PLACEMENT_3D('',#418,#349,#350);
#287=AXIS2_PLACEMENT_3D('',#420,#351,#352);
#288=AXIS2_PLACEMENT_3D('',#421,#353,#354);
#289=AXIS2_PLACEMENT_3D('',#422,#355,#356);
#290=AXIS2_PLACEMENT_3D('',#424,#357,#358);
#291=AXIS2_PLACEMENT_3D('',#425,#359,#360);
#292=AXIS2_PLACEMENT_3D('',#426,#361,#362);
#293=AXIS2_PLACEMENT_3D('',#428,#363,#364);
#294=AXIS2_PLACEMENT_3D('',#429,#365,#366);
#295=AXIS2_PLACEMENT_3D('',#431,#367,#368);
#296=AXIS2_PLACEMENT_3D('',#432,#369,#370);
#297=AXIS2_PLACEMENT_3D('',#434,#371,#372);
#298=AXIS2_PLACEMENT_3D('',#435,#373,#374);
#299=AXIS2_PLACEMENT_3D('',#437,#375,#376);
#300=AXIS2_PLACEMENT_3D('',#438,#377,#378);
#301=AXIS2_PLACEMENT_3D('',#440,#379,#380);
#302=AXIS2_PLACEMENT_3D('',#441,#381,#382);
#303=AXIS2_PLACEMENT_3D('',#443,#383,#384);
#304=AXIS2_PLACEMENT_3D('',#444,#385,#386);
#305=DIRECTION('',(0.,0.,1.));
#306=DIRECTION('',(1.,0.,0.));
#307=DIRECTION('',(0.,0.,1.));
#308=DIRECTION('',(1.,0.,0.));
#309=DIRECTION('',(0.,0.,1.));
#310=DIRECTION('',(1.,0.,0.));
#311=DIRECTION('',(0.,0.,1.));
#312=DIRECTION('',(1.,0.,0.));
#313=DIRECTION('',(0.,0.,1.));
#314=DIRECTION('',(1.,0.,0.));
#315=DIRECTION('',(0.,0.,-1.));
#316=DIRECTION('',(-1.,0.,0.));
#317=DIRECTION('',(0.,0.,-1.));
#318=DIRECTION('',(-1.,0.,0.));
#319=DIRECTION('',(0.,0.,-1.));
#320=DIRECTION('',(-1.,0.,0.));
#321=DIRECTION('',(0.,0.,-1.));
#322=DIRECTION('',(-1.,0.,0.));
#323=DIRECTION('',(0.,0.,-1.));
#324=DIRECTION('',(-1.,0.,0.));
#325=DIRECTION('',(0.,0.,-1.));
#326=DIRECTION('',(-1.,0.,4.14276750169804E-17));
#327=DIRECTION('',(0.,0.,-1.));
#328=DIRECTION('',(-1.,0.,0.));
#329=DIRECTION('',(0.,0.,-1.));
#330=DIRECTION('',(-1.,0.,0.));
#331=DIRECTION('',(0.,0.,1.));
#332=DIRECTION('',(-1.,0.,0.));
#333=DIRECTION('',(0.,0.,-1.));
#334=DIRECTION('',(-1.,0.,0.));
#335=DIRECTION('',(0.,0.,1.));
#336=DIRECTION('',(1.,0.,0.));
#337=DIRECTION('',(0.,0.,-1.));
#338=DIRECTION('',(-1.,0.,0.));
#339=DIRECTION('',(0.,0.,1.));
#340=DIRECTION('',(1.,0.,0.));
#341=DIRECTION('',(0.,0.,-1.));
#342=DIRECTION('',(-1.,0.,0.));
#343=DIRECTION('',(0.,0.,1.));
#344=DIRECTION('',(1.,0.,9.54047246410292E-17));
#345=DIRECTION('',(0.,0.,-1.));
#346=DIRECTION('',(-1.,0.,0.));
#347=DIRECTION('',(0.,0.,-1.));
#348=DIRECTION('',(-1.,0.,0.));
#349=DIRECTION('',(0.,0.,-1.));
#350=DIRECTION('',(-1.,0.,0.));
#351=DIRECTION('',(0.,0.,1.));
#352=DIRECTION('',(1.,0.,0.));
#353=DIRECTION('',(0.,0.,1.));
#354=DIRECTION('',(1.,0.,2.03449335646917E-16));
#355=DIRECTION('',(0.,0.,-1.));
#356=DIRECTION('',(1.,0.,0.));
#357=DIRECTION('',(0.,0.,1.));
#358=DIRECTION('',(1.,0.,0.));
#359=DIRECTION('',(0.,0.,1.));
#360=DIRECTION('',(1.,0.,0.));
#361=DIRECTION('',(0.,0.,1.));
#362=DIRECTION('',(1.,0.,0.));
#363=DIRECTION('',(0.,0.,-1.));
#364=DIRECTION('',(-1.,0.,-1.01775387290301E-16));
#365=DIRECTION('',(0.,0.,1.));
#366=DIRECTION('',(1.,0.,0.));
#367=DIRECTION('',(0.,0.,1.));
#368=DIRECTION('',(1.,0.,0.));
#369=DIRECTION('',(0.,0.,1.));
#370=DIRECTION('',(1.,0.,0.));
#371=DIRECTION('',(0.,0.,1.));
#372=DIRECTION('',(1.,0.,0.));
#373=DIRECTION('',(0.,0.,1.));
#374=DIRECTION('',(1.,0.,0.));
#375=DIRECTION('',(0.,0.,1.));
#376=DIRECTION('',(1.,0.,7.99042774192215E-18));
#377=DIRECTION('',(0.,0.,1.));
#378=DIRECTION('',(1.,0.,0.));
#379=DIRECTION('',(0.,0.,1.));
#380=DIRECTION('',(1.,0.,0.));
#381=DIRECTION('',(0.,0.,1.));
#382=DIRECTION('',(1.,0.,0.));
#383=DIRECTION('',(0.,0.,1.));
#384=DIRECTION('',(1.,0.,0.));
#385=DIRECTION('',(0.,0.,1.));
#386=DIRECTION('',(1.,0.,0.));
#387=CARTESIAN_POINT('',(0.,0.,0.));
#388=CARTESIAN_POINT('',(0.,0.,0.));
#389=CARTESIAN_POINT('',(0.,0.,45.));
#390=CARTESIAN_POINT('',(0.,0.,-115.));
#391=CARTESIAN_POINT('',(0.,0.,0.));
#392=CARTESIAN_POINT('',(0.,0.,0.));
#393=CARTESIAN_POINT('',(-6.0000000000001,0.,0.));
#394=CARTESIAN_POINT('',(0.,0.,0.));
#395=CARTESIAN_POINT('',(0.,0.,45.));
#396=CARTESIAN_POINT('',(-4.965,0.,45.));
#397=CARTESIAN_POINT('',(0.,0.,45.));
#398=CARTESIAN_POINT('',(0.,0.,43.965));
#399=CARTESIAN_POINT('',(-6.0000000000001,0.,43.965));
#400=CARTESIAN_POINT('',(0.,0.,45.));
#401=CARTESIAN_POINT('',(0.,0.,-35.798797636302));
#402=CARTESIAN_POINT('',(0.,0.,-112.45));
#403=CARTESIAN_POINT('',(-4.89999999999999,0.,-112.45));
#404=CARTESIAN_POINT('',(0.,0.,-87.95));
#405=CARTESIAN_POINT('',(-4.90000000000001,0.,-87.95));
#406=CARTESIAN_POINT('',(0.,0.,-98.798797636302));
#407=CARTESIAN_POINT('',(0.,0.,-115.));
#408=CARTESIAN_POINT('',(3.,0.,-115.));
#409=CARTESIAN_POINT('',(0.,0.,-115.));
#410=CARTESIAN_POINT('',(-4.336325,0.,-115.));
#411=CARTESIAN_POINT('',(0.,4.33632500449581,-114.999999998053));
#412=CARTESIAN_POINT('',(0.,0.,-114.716506));
#413=CARTESIAN_POINT('',(-4.5,0.,-114.716506));
#414=CARTESIAN_POINT('',(0.,0.,-114.716506));
#415=CARTESIAN_POINT('',(0.,0.,-112.95));
#416=CARTESIAN_POINT('',(-4.5,0.,-112.95));
#417=CARTESIAN_POINT('',(0.,0.,-119.798797636302));
#418=CARTESIAN_POINT('',(0.,0.,-112.95));
#419=CARTESIAN_POINT('',(-4.766025,0.,-112.95));
#420=CARTESIAN_POINT('',(0.,4.766025,-112.95));
#421=CARTESIAN_POINT('',(0.,0.,-112.45));
#422=CARTESIAN_POINT('',(0.,0.,-104.));
#423=CARTESIAN_POINT('',(3.,0.,-104.));
#424=CARTESIAN_POINT('',(0.,0.,-104.));
#425=CARTESIAN_POINT('',(0.,0.,-115.));
#426=CARTESIAN_POINT('',(0.,0.,-87.45));
#427=CARTESIAN_POINT('',(4.7660260000001,0.,-87.45));
#428=CARTESIAN_POINT('',(0.,0.,-87.45));
#429=CARTESIAN_POINT('',(0.,0.,-87.450004));
#430=CARTESIAN_POINT('',(4.45000000000006,0.,-87.450004));
#431=CARTESIAN_POINT('',(0.,4.4500000000001,-87.45));
#432=CARTESIAN_POINT('',(0.,0.,-87.405177));
#433=CARTESIAN_POINT('',(4.45000000000002,0.,-87.405177));
#434=CARTESIAN_POINT('',(0.,0.,-13.079057149526));
#435=CARTESIAN_POINT('',(0.,0.,-87.231972));
#436=CARTESIAN_POINT('',(4.75,0.,-87.231972));
#437=CARTESIAN_POINT('',(0.,0.,-87.231972));
#438=CARTESIAN_POINT('',(0.,0.,-5.58487600000001));
#439=CARTESIAN_POINT('',(4.74999996173062,0.,-5.58487600000001));
#440=CARTESIAN_POINT('',(0.,0.,49.920942850474));
#441=CARTESIAN_POINT('',(0.,0.,0.));
#442=CARTESIAN_POINT('',(6.,0.,0.));
#443=CARTESIAN_POINT('',(0.,0.,-5.58487600000001));
#444=CARTESIAN_POINT('',(0.,0.,0.));
#445=MECHANICAL_DESIGN_GEOMETRIC_PRESENTATION_REPRESENTATION('',(#242,#243,
#244,#245,#246,#247),#446);
#446=(
GEOMETRIC_REPRESENTATION_CONTEXT(3)
GLOBAL_UNCERTAINTY_ASSIGNED_CONTEXT((#447))
GLOBAL_UNIT_ASSIGNED_CONTEXT((#453,#449,#448))
REPRESENTATION_CONTEXT('PMX06-12000-12N1','TOP_LEVEL_ASSEMBLY_PART')
);
#447=UNCERTAINTY_MEASURE_WITH_UNIT(LENGTH_MEASURE(2.E-5),#453,
'DISTANCE_ACCURACY_VALUE','Maximum Tolerance applied to model');
#448=(
NAMED_UNIT(*)
SI_UNIT($,.STERADIAN.)
SOLID_ANGLE_UNIT()
);
#449=(
CONVERSION_BASED_UNIT('DEGREE',#451)
NAMED_UNIT(#450)
PLANE_ANGLE_UNIT()
);
#450=DIMENSIONAL_EXPONENTS(0.,0.,0.,0.,0.,0.,0.);
#451=PLANE_ANGLE_MEASURE_WITH_UNIT(PLANE_ANGLE_MEASURE(0.0174532925),#452);
#452=(
NAMED_UNIT(*)
PLANE_ANGLE_UNIT()
SI_UNIT($,.RADIAN.)
);
#453=(
LENGTH_UNIT()
NAMED_UNIT(*)
SI_UNIT(.MILLI.,.METRE.)
);
ENDSEC;
END-ISO-10303-21;
