ISO-10303-21;
HEADER;
/* Generated by software containing ST-Developer
 * from STEP Tools, Inc. (www.steptools.com) 
 */
/* OPTION: using custom schema-name function */

FILE_DESCRIPTION(
/* description */ (''),
/* implementation_level */ '2;1');

FILE_NAME(
/* name */ 'PMX06-05700-12N1.stp',
/* time_stamp */ '2018-03-16T14:54:19+05:00',
/* author */ (''),
/* organization */ (''),
/* preprocessor_version */ 'ST-DEVELOPER v16',
/* originating_system */ 'SIEMENS PLM Software NX 11.0',
/* authorisation */ '');

FILE_SCHEMA (('AUTOMOTIVE_DESIGN { 1 0 10303 214 3 1 1 1 }'));
ENDSEC;

DATA;
#10=CONSTRUCTIVE_GEOMETRY_REPRESENTATION_RELATIONSHIP(
'supplemental geometry','',#32,#11);
#11=CONSTRUCTIVE_GEOMETRY_REPRESENTATION('supplemental geometry',(#259,
#260,#261),#436);
#12=PROPERTY_DEFINITION_REPRESENTATION(#16,#14);
#13=PROPERTY_DEFINITION_REPRESENTATION(#17,#15);
#14=REPRESENTATION('',(#18),#436);
#15=REPRESENTATION('',(#19),#436);
#16=PROPERTY_DEFINITION('pmi validation property','',#23);
#17=PROPERTY_DEFINITION('pmi validation property','',#23);
#18=VALUE_REPRESENTATION_ITEM('number of annotations',COUNT_MEASURE(0.));
#19=VALUE_REPRESENTATION_ITEM('number of views',COUNT_MEASURE(0.));
#20=SHAPE_REPRESENTATION_RELATIONSHIP('None',
'relationship between PMX06-05700-12N1-None and PMX06-05700-12N1-None',
#32,#21);
#21=ADVANCED_BREP_SHAPE_REPRESENTATION('PMX06-05700-12N1-None',(#44,#45),
#436);
#22=SHAPE_DEFINITION_REPRESENTATION(#23,#32);
#23=PRODUCT_DEFINITION_SHAPE('','',#24);
#24=PRODUCT_DEFINITION(' ','',#26,#25);
#25=PRODUCT_DEFINITION_CONTEXT('part definition',#31,'design');
#26=PRODUCT_DEFINITION_FORMATION_WITH_SPECIFIED_SOURCE(' ',' ',#28,
 .NOT_KNOWN.);
#27=PRODUCT_RELATED_PRODUCT_CATEGORY('part','',(#28));
#28=PRODUCT('inpu15CC245Dgb1g','inpu15CC245Dgb1g',' ',(#29));
#29=PRODUCT_CONTEXT(' ',#31,'mechanical');
#30=APPLICATION_PROTOCOL_DEFINITION('international standard',
'automotive_design',2010,#31);
#31=APPLICATION_CONTEXT(
'core data for automotive mechanical design processes');
#32=SHAPE_REPRESENTATION('PMX06-05700-12N1-None',(#258),#436);
#33=TOROIDAL_SURFACE('',#296,17.8513360000001,13.1013360382695);
#34=SURFACE_STYLE_USAGE(.BOTH.,#36);
#35=SURFACE_STYLE_USAGE(.BOTH.,#37);
#36=SURFACE_SIDE_STYLE('',(#38));
#37=SURFACE_SIDE_STYLE('',(#39));
#38=SURFACE_STYLE_FILL_AREA(#40);
#39=SURFACE_STYLE_FILL_AREA(#41);
#40=FILL_AREA_STYLE('',(#42));
#41=FILL_AREA_STYLE('',(#43));
#42=FILL_AREA_STYLE_COLOUR('',#254);
#43=FILL_AREA_STYLE_COLOUR('',#254);
#44=MANIFOLD_SOLID_BREP('NOCUT',#46);
#45=MANIFOLD_SOLID_BREP('NOCUT',#47);
#46=CLOSED_SHELL('',(#89,#90,#91,#92));
#47=CLOSED_SHELL('',(#93,#94,#95,#96,#97,#98,#99,#100,#101,#102,#103,#104,
#105,#106,#107));
#48=CYLINDRICAL_SURFACE('',#268,6.0000000000001);
#49=CYLINDRICAL_SURFACE('',#271,4.89999999999999);
#50=CYLINDRICAL_SURFACE('',#278,4.5);
#51=CYLINDRICAL_SURFACE('',#284,3.);
#52=CYLINDRICAL_SURFACE('',#290,4.45000000000002);
#53=CYLINDRICAL_SURFACE('',#294,4.74999998086531);
#54=CONICAL_SURFACE('',#267,4.965,45.0000000000025);
#55=CONICAL_SURFACE('',#276,4.5,29.9999488853515);
#56=CONICAL_SURFACE('',#281,4.89999999999999,15.0000431707571);
#57=CONICAL_SURFACE('',#286,4.7660260000001,14.999936255358);
#58=CONICAL_SURFACE('',#292,4.75,60.0000115675726);
#59=FACE_BOUND('',#121,.T.);
#60=FACE_BOUND('',#122,.T.);
#61=FACE_BOUND('',#123,.T.);
#62=FACE_BOUND('',#124,.T.);
#63=FACE_BOUND('',#125,.T.);
#64=FACE_BOUND('',#126,.T.);
#65=FACE_BOUND('',#127,.T.);
#66=FACE_BOUND('',#128,.T.);
#67=FACE_BOUND('',#129,.T.);
#68=FACE_BOUND('',#130,.T.);
#69=FACE_BOUND('',#131,.T.);
#70=FACE_BOUND('',#132,.T.);
#71=FACE_BOUND('',#133,.T.);
#72=FACE_BOUND('',#134,.T.);
#73=FACE_BOUND('',#135,.T.);
#74=FACE_BOUND('',#136,.T.);
#75=FACE_BOUND('',#138,.T.);
#76=FACE_BOUND('',#139,.T.);
#77=FACE_BOUND('',#140,.T.);
#78=FACE_BOUND('',#141,.T.);
#79=FACE_BOUND('',#142,.T.);
#80=FACE_BOUND('',#143,.T.);
#81=FACE_BOUND('',#144,.T.);
#82=FACE_BOUND('',#145,.T.);
#83=FACE_BOUND('',#146,.T.);
#84=FACE_BOUND('',#147,.T.);
#85=FACE_BOUND('',#148,.T.);
#86=FACE_BOUND('',#149,.T.);
#87=FACE_BOUND('',#150,.T.);
#88=FACE_BOUND('',#151,.T.);
#89=ADVANCED_FACE('',(#115),#108,.T.);
#90=ADVANCED_FACE('',(#116),#109,.F.);
#91=ADVANCED_FACE('',(#59,#60),#54,.T.);
#92=ADVANCED_FACE('',(#61,#62),#48,.T.);
#93=ADVANCED_FACE('',(#63,#64),#49,.T.);
#94=ADVANCED_FACE('',(#65,#66),#110,.F.);
#95=ADVANCED_FACE('',(#67,#68),#55,.T.);
#96=ADVANCED_FACE('',(#69,#70),#50,.T.);
#97=ADVANCED_FACE('',(#71,#72),#111,.F.);
#98=ADVANCED_FACE('',(#73,#74),#56,.T.);
#99=ADVANCED_FACE('',(#117),#112,.F.);
#100=ADVANCED_FACE('',(#75,#76),#51,.F.);
#101=ADVANCED_FACE('',(#77,#78),#57,.T.);
#102=ADVANCED_FACE('',(#79,#80),#113,.T.);
#103=ADVANCED_FACE('',(#81,#82),#52,.T.);
#104=ADVANCED_FACE('',(#83,#84),#58,.T.);
#105=ADVANCED_FACE('',(#85,#86),#53,.T.);
#106=ADVANCED_FACE('',(#87,#88),#33,.F.);
#107=ADVANCED_FACE('',(#118),#114,.T.);
#108=PLANE('',#263);
#109=PLANE('',#265);
#110=PLANE('',#274);
#111=PLANE('',#280);
#112=PLANE('',#283);
#113=PLANE('',#288);
#114=PLANE('',#297);
#115=FACE_OUTER_BOUND('',#119,.T.);
#116=FACE_OUTER_BOUND('',#120,.T.);
#117=FACE_OUTER_BOUND('',#137,.T.);
#118=FACE_OUTER_BOUND('',#152,.T.);
#119=EDGE_LOOP('',(#153));
#120=EDGE_LOOP('',(#154));
#121=EDGE_LOOP('',(#155));
#122=EDGE_LOOP('',(#156));
#123=EDGE_LOOP('',(#157));
#124=EDGE_LOOP('',(#158));
#125=EDGE_LOOP('',(#159));
#126=EDGE_LOOP('',(#160));
#127=EDGE_LOOP('',(#161));
#128=EDGE_LOOP('',(#162));
#129=EDGE_LOOP('',(#163));
#130=EDGE_LOOP('',(#164));
#131=EDGE_LOOP('',(#165));
#132=EDGE_LOOP('',(#166));
#133=EDGE_LOOP('',(#167));
#134=EDGE_LOOP('',(#168));
#135=EDGE_LOOP('',(#169));
#136=EDGE_LOOP('',(#170));
#137=EDGE_LOOP('',(#171));
#138=EDGE_LOOP('',(#172));
#139=EDGE_LOOP('',(#173));
#140=EDGE_LOOP('',(#174));
#141=EDGE_LOOP('',(#175));
#142=EDGE_LOOP('',(#176));
#143=EDGE_LOOP('',(#177));
#144=EDGE_LOOP('',(#178));
#145=EDGE_LOOP('',(#179));
#146=EDGE_LOOP('',(#180));
#147=EDGE_LOOP('',(#181));
#148=EDGE_LOOP('',(#182));
#149=EDGE_LOOP('',(#183));
#150=EDGE_LOOP('',(#184));
#151=EDGE_LOOP('',(#185));
#152=EDGE_LOOP('',(#186));
#153=ORIENTED_EDGE('',*,*,#204,.T.);
#154=ORIENTED_EDGE('',*,*,#205,.F.);
#155=ORIENTED_EDGE('',*,*,#206,.F.);
#156=ORIENTED_EDGE('',*,*,#205,.T.);
#157=ORIENTED_EDGE('',*,*,#204,.F.);
#158=ORIENTED_EDGE('',*,*,#206,.T.);
#159=ORIENTED_EDGE('',*,*,#207,.F.);
#160=ORIENTED_EDGE('',*,*,#208,.F.);
#161=ORIENTED_EDGE('',*,*,#209,.T.);
#162=ORIENTED_EDGE('',*,*,#210,.T.);
#163=ORIENTED_EDGE('',*,*,#210,.F.);
#164=ORIENTED_EDGE('',*,*,#211,.T.);
#165=ORIENTED_EDGE('',*,*,#211,.F.);
#166=ORIENTED_EDGE('',*,*,#212,.T.);
#167=ORIENTED_EDGE('',*,*,#212,.F.);
#168=ORIENTED_EDGE('',*,*,#213,.T.);
#169=ORIENTED_EDGE('',*,*,#213,.F.);
#170=ORIENTED_EDGE('',*,*,#207,.T.);
#171=ORIENTED_EDGE('',*,*,#214,.T.);
#172=ORIENTED_EDGE('',*,*,#214,.F.);
#173=ORIENTED_EDGE('',*,*,#209,.F.);
#174=ORIENTED_EDGE('',*,*,#208,.T.);
#175=ORIENTED_EDGE('',*,*,#215,.F.);
#176=ORIENTED_EDGE('',*,*,#215,.T.);
#177=ORIENTED_EDGE('',*,*,#216,.F.);
#178=ORIENTED_EDGE('',*,*,#216,.T.);
#179=ORIENTED_EDGE('',*,*,#217,.F.);
#180=ORIENTED_EDGE('',*,*,#217,.T.);
#181=ORIENTED_EDGE('',*,*,#218,.F.);
#182=ORIENTED_EDGE('',*,*,#218,.T.);
#183=ORIENTED_EDGE('',*,*,#219,.F.);
#184=ORIENTED_EDGE('',*,*,#219,.T.);
#185=ORIENTED_EDGE('',*,*,#220,.F.);
#186=ORIENTED_EDGE('',*,*,#220,.T.);
#187=VERTEX_POINT('',#383);
#188=VERTEX_POINT('',#386);
#189=VERTEX_POINT('',#389);
#190=VERTEX_POINT('',#393);
#191=VERTEX_POINT('',#395);
#192=VERTEX_POINT('',#398);
#193=VERTEX_POINT('',#400);
#194=VERTEX_POINT('',#403);
#195=VERTEX_POINT('',#406);
#196=VERTEX_POINT('',#409);
#197=VERTEX_POINT('',#413);
#198=VERTEX_POINT('',#417);
#199=VERTEX_POINT('',#420);
#200=VERTEX_POINT('',#423);
#201=VERTEX_POINT('',#426);
#202=VERTEX_POINT('',#429);
#203=VERTEX_POINT('',#432);
#204=EDGE_CURVE('',#187,#187,#221,.T.);
#205=EDGE_CURVE('',#188,#188,#222,.T.);
#206=EDGE_CURVE('',#189,#189,#223,.T.);
#207=EDGE_CURVE('',#190,#190,#224,.T.);
#208=EDGE_CURVE('',#191,#191,#225,.T.);
#209=EDGE_CURVE('',#192,#192,#226,.T.);
#210=EDGE_CURVE('',#193,#193,#227,.T.);
#211=EDGE_CURVE('',#194,#194,#228,.T.);
#212=EDGE_CURVE('',#195,#195,#229,.T.);
#213=EDGE_CURVE('',#196,#196,#230,.T.);
#214=EDGE_CURVE('',#197,#197,#231,.T.);
#215=EDGE_CURVE('',#198,#198,#232,.T.);
#216=EDGE_CURVE('',#199,#199,#233,.T.);
#217=EDGE_CURVE('',#200,#200,#234,.T.);
#218=EDGE_CURVE('',#201,#201,#235,.T.);
#219=EDGE_CURVE('',#202,#202,#236,.T.);
#220=EDGE_CURVE('',#203,#203,#237,.T.);
#221=CIRCLE('',#262,6.0000000000001);
#222=CIRCLE('',#264,4.965);
#223=CIRCLE('',#266,6.0000000000001);
#224=CIRCLE('',#269,4.89999999999999);
#225=CIRCLE('',#270,4.90000000000001);
#226=CIRCLE('',#272,3.);
#227=CIRCLE('',#273,4.336325);
#228=CIRCLE('',#275,4.5);
#229=CIRCLE('',#277,4.5);
#230=CIRCLE('',#279,4.766025);
#231=CIRCLE('',#282,3.);
#232=CIRCLE('',#285,4.7660260000001);
#233=CIRCLE('',#287,4.45000000000006);
#234=CIRCLE('',#289,4.45000000000002);
#235=CIRCLE('',#291,4.75);
#236=CIRCLE('',#293,4.74999996173062);
#237=CIRCLE('',#295,6.);
#238=PRESENTATION_LAYER_ASSIGNMENT('1','Layer 1',(#259,#260,#261,#44));
#239=PRESENTATION_LAYER_ASSIGNMENT('2','Layer 2',(#45));
#240=STYLED_ITEM('',(#245),#259);
#241=STYLED_ITEM('',(#246),#260);
#242=STYLED_ITEM('',(#247),#261);
#243=STYLED_ITEM('',(#248),#44);
#244=STYLED_ITEM('',(#249),#45);
#245=PRESENTATION_STYLE_ASSIGNMENT((#250));
#246=PRESENTATION_STYLE_ASSIGNMENT((#251));
#247=PRESENTATION_STYLE_ASSIGNMENT((#252));
#248=PRESENTATION_STYLE_ASSIGNMENT((#34));
#249=PRESENTATION_STYLE_ASSIGNMENT((#35));
#250=CURVE_STYLE('',#255,POSITIVE_LENGTH_MEASURE(0.18),#253);
#251=CURVE_STYLE('',#256,POSITIVE_LENGTH_MEASURE(0.18),#253);
#252=CURVE_STYLE('',#257,POSITIVE_LENGTH_MEASURE(0.18),#253);
#253=COLOUR_RGB('Strong Stone',0.576470588235294,0.54508278019379,0.392156862745098);
#254=COLOUR_RGB('Medium Gray',0.490196078431373,0.490196078431373,0.490196078431373);
#255=DRAUGHTING_PRE_DEFINED_CURVE_FONT('continuous');
#256=DRAUGHTING_PRE_DEFINED_CURVE_FONT('continuous');
#257=DRAUGHTING_PRE_DEFINED_CURVE_FONT('continuous');
#258=AXIS2_PLACEMENT_3D('',#378,#298,#299);
#259=AXIS2_PLACEMENT_3D('MCS',#379,#300,#301);
#260=AXIS2_PLACEMENT_3D('PCS',#380,#302,#303);
#261=AXIS2_PLACEMENT_3D('CSW',#381,#304,#305);
#262=AXIS2_PLACEMENT_3D('',#382,#306,#307);
#263=AXIS2_PLACEMENT_3D('',#384,#308,#309);
#264=AXIS2_PLACEMENT_3D('',#385,#310,#311);
#265=AXIS2_PLACEMENT_3D('',#387,#312,#313);
#266=AXIS2_PLACEMENT_3D('',#388,#314,#315);
#267=AXIS2_PLACEMENT_3D('',#390,#316,#317);
#268=AXIS2_PLACEMENT_3D('',#391,#318,#319);
#269=AXIS2_PLACEMENT_3D('',#392,#320,#321);
#270=AXIS2_PLACEMENT_3D('',#394,#322,#323);
#271=AXIS2_PLACEMENT_3D('',#396,#324,#325);
#272=AXIS2_PLACEMENT_3D('',#397,#326,#327);
#273=AXIS2_PLACEMENT_3D('',#399,#328,#329);
#274=AXIS2_PLACEMENT_3D('',#401,#330,#331);
#275=AXIS2_PLACEMENT_3D('',#402,#332,#333);
#276=AXIS2_PLACEMENT_3D('',#404,#334,#335);
#277=AXIS2_PLACEMENT_3D('',#405,#336,#337);
#278=AXIS2_PLACEMENT_3D('',#407,#338,#339);
#279=AXIS2_PLACEMENT_3D('',#408,#340,#341);
#280=AXIS2_PLACEMENT_3D('',#410,#342,#343);
#281=AXIS2_PLACEMENT_3D('',#411,#344,#345);
#282=AXIS2_PLACEMENT_3D('',#412,#346,#347);
#283=AXIS2_PLACEMENT_3D('',#414,#348,#349);
#284=AXIS2_PLACEMENT_3D('',#415,#350,#351);
#285=AXIS2_PLACEMENT_3D('',#416,#352,#353);
#286=AXIS2_PLACEMENT_3D('',#418,#354,#355);
#287=AXIS2_PLACEMENT_3D('',#419,#356,#357);
#288=AXIS2_PLACEMENT_3D('',#421,#358,#359);
#289=AXIS2_PLACEMENT_3D('',#422,#360,#361);
#290=AXIS2_PLACEMENT_3D('',#424,#362,#363);
#291=AXIS2_PLACEMENT_3D('',#425,#364,#365);
#292=AXIS2_PLACEMENT_3D('',#427,#366,#367);
#293=AXIS2_PLACEMENT_3D('',#428,#368,#369);
#294=AXIS2_PLACEMENT_3D('',#430,#370,#371);
#295=AXIS2_PLACEMENT_3D('',#431,#372,#373);
#296=AXIS2_PLACEMENT_3D('',#433,#374,#375);
#297=AXIS2_PLACEMENT_3D('',#434,#376,#377);
#298=DIRECTION('',(0.,0.,1.));
#299=DIRECTION('',(1.,0.,0.));
#300=DIRECTION('',(0.,0.,1.));
#301=DIRECTION('',(1.,0.,0.));
#302=DIRECTION('',(0.,0.,1.));
#303=DIRECTION('',(1.,0.,0.));
#304=DIRECTION('',(0.,0.,1.));
#305=DIRECTION('',(1.,0.,0.));
#306=DIRECTION('',(0.,0.,-1.));
#307=DIRECTION('',(-1.,0.,0.));
#308=DIRECTION('',(0.,0.,-1.));
#309=DIRECTION('',(-1.,0.,0.));
#310=DIRECTION('',(0.,0.,-1.));
#311=DIRECTION('',(-1.,0.,0.));
#312=DIRECTION('',(0.,0.,-1.));
#313=DIRECTION('',(-1.,0.,0.));
#314=DIRECTION('',(0.,0.,-1.));
#315=DIRECTION('',(-1.,0.,0.));
#316=DIRECTION('',(0.,0.,-1.));
#317=DIRECTION('',(-1.,0.,4.14276750169804E-17));
#318=DIRECTION('',(0.,0.,-1.));
#319=DIRECTION('',(-1.,0.,0.));
#320=DIRECTION('',(0.,0.,-1.));
#321=DIRECTION('',(-1.,0.,0.));
#322=DIRECTION('',(0.,0.,1.));
#323=DIRECTION('',(-1.,0.,0.));
#324=DIRECTION('',(0.,0.,-1.));
#325=DIRECTION('',(-1.,0.,0.));
#326=DIRECTION('',(0.,0.,1.));
#327=DIRECTION('',(1.,0.,0.));
#328=DIRECTION('',(0.,0.,-1.));
#329=DIRECTION('',(-1.,0.,0.));
#330=DIRECTION('',(0.,0.,1.));
#331=DIRECTION('',(1.,0.,0.));
#332=DIRECTION('',(0.,0.,-1.));
#333=DIRECTION('',(-1.,0.,0.));
#334=DIRECTION('',(0.,0.,1.));
#335=DIRECTION('',(1.,0.,0.));
#336=DIRECTION('',(0.,0.,-1.));
#337=DIRECTION('',(-1.,0.,0.));
#338=DIRECTION('',(0.,0.,-1.));
#339=DIRECTION('',(-1.,0.,0.));
#340=DIRECTION('',(0.,0.,-1.));
#341=DIRECTION('',(-1.,0.,0.));
#342=DIRECTION('',(0.,0.,1.));
#343=DIRECTION('',(1.,0.,0.));
#344=DIRECTION('',(0.,0.,1.));
#345=DIRECTION('',(1.,0.,2.54311669558646E-17));
#346=DIRECTION('',(0.,0.,-1.));
#347=DIRECTION('',(1.,0.,0.));
#348=DIRECTION('',(0.,0.,1.));
#349=DIRECTION('',(1.,0.,0.));
#350=DIRECTION('',(0.,0.,1.));
#351=DIRECTION('',(1.,0.,0.));
#352=DIRECTION('',(0.,0.,1.));
#353=DIRECTION('',(1.,0.,0.));
#354=DIRECTION('',(0.,0.,-1.));
#355=DIRECTION('',(-1.,0.,-3.05326161870903E-16));
#356=DIRECTION('',(0.,0.,1.));
#357=DIRECTION('',(1.,0.,0.));
#358=DIRECTION('',(0.,0.,1.));
#359=DIRECTION('',(1.,0.,0.));
#360=DIRECTION('',(0.,0.,1.));
#361=DIRECTION('',(1.,0.,0.));
#362=DIRECTION('',(0.,0.,1.));
#363=DIRECTION('',(1.,0.,0.));
#364=DIRECTION('',(0.,0.,1.));
#365=DIRECTION('',(1.,0.,0.));
#366=DIRECTION('',(0.,0.,1.));
#367=DIRECTION('',(1.,0.,-2.5968890161247E-17));
#368=DIRECTION('',(0.,0.,1.));
#369=DIRECTION('',(1.,0.,0.));
#370=DIRECTION('',(0.,0.,1.));
#371=DIRECTION('',(1.,0.,0.));
#372=DIRECTION('',(0.,0.,1.));
#373=DIRECTION('',(1.,0.,0.));
#374=DIRECTION('',(0.,0.,1.));
#375=DIRECTION('',(1.,0.,0.));
#376=DIRECTION('',(0.,0.,1.));
#377=DIRECTION('',(1.,0.,0.));
#378=CARTESIAN_POINT('',(0.,0.,0.));
#379=CARTESIAN_POINT('',(0.,0.,0.));
#380=CARTESIAN_POINT('',(0.,0.,45.));
#381=CARTESIAN_POINT('',(0.,0.,-52.));
#382=CARTESIAN_POINT('',(0.,0.,0.));
#383=CARTESIAN_POINT('',(-6.0000000000001,0.,0.));
#384=CARTESIAN_POINT('',(0.,0.,0.));
#385=CARTESIAN_POINT('',(0.,0.,45.));
#386=CARTESIAN_POINT('',(-4.965,0.,45.));
#387=CARTESIAN_POINT('',(0.,0.,45.));
#388=CARTESIAN_POINT('',(0.,0.,43.965));
#389=CARTESIAN_POINT('',(-6.0000000000001,0.,43.965));
#390=CARTESIAN_POINT('',(0.,0.,45.));
#391=CARTESIAN_POINT('',(0.,0.,-35.798797636302));
#392=CARTESIAN_POINT('',(0.,0.,-49.45));
#393=CARTESIAN_POINT('',(-4.89999999999999,0.,-49.45));
#394=CARTESIAN_POINT('',(0.,0.,-24.95));
#395=CARTESIAN_POINT('',(-4.90000000000001,0.,-24.95));
#396=CARTESIAN_POINT('',(0.,0.,-35.798797636302));
#397=CARTESIAN_POINT('',(0.,0.,-52.));
#398=CARTESIAN_POINT('',(3.,0.,-52.));
#399=CARTESIAN_POINT('',(0.,0.,-52.));
#400=CARTESIAN_POINT('',(-4.336325,0.,-52.));
#401=CARTESIAN_POINT('',(0.,4.33632500449581,-51.9999999980533));
#402=CARTESIAN_POINT('',(0.,0.,-51.716506));
#403=CARTESIAN_POINT('',(-4.5,0.,-51.716506));
#404=CARTESIAN_POINT('',(0.,0.,-51.716506));
#405=CARTESIAN_POINT('',(0.,0.,-49.95));
#406=CARTESIAN_POINT('',(-4.5,0.,-49.95));
#407=CARTESIAN_POINT('',(0.,0.,-56.798797636302));
#408=CARTESIAN_POINT('',(0.,0.,-49.95));
#409=CARTESIAN_POINT('',(-4.766025,0.,-49.95));
#410=CARTESIAN_POINT('',(0.,4.766025,-49.95));
#411=CARTESIAN_POINT('',(0.,0.,-49.45));
#412=CARTESIAN_POINT('',(0.,0.,-41.));
#413=CARTESIAN_POINT('',(3.,0.,-41.));
#414=CARTESIAN_POINT('',(0.,0.,-41.));
#415=CARTESIAN_POINT('',(0.,0.,-52.));
#416=CARTESIAN_POINT('',(0.,0.,-24.45));
#417=CARTESIAN_POINT('',(4.7660260000001,0.,-24.45));
#418=CARTESIAN_POINT('',(0.,0.,-24.45));
#419=CARTESIAN_POINT('',(0.,0.,-24.450004));
#420=CARTESIAN_POINT('',(4.45000000000006,0.,-24.450004));
#421=CARTESIAN_POINT('',(0.,4.4500000000001,-24.45));
#422=CARTESIAN_POINT('',(0.,0.,-24.405177));
#423=CARTESIAN_POINT('',(4.45000000000002,0.,-24.405177));
#424=CARTESIAN_POINT('',(0.,0.,49.920942850474));
#425=CARTESIAN_POINT('',(0.,0.,-24.231972));
#426=CARTESIAN_POINT('',(4.75,0.,-24.231972));
#427=CARTESIAN_POINT('',(0.,0.,-24.231972));
#428=CARTESIAN_POINT('',(0.,0.,-5.58487600000001));
#429=CARTESIAN_POINT('',(4.74999996173062,0.,-5.58487600000001));
#430=CARTESIAN_POINT('',(0.,0.,49.920942850474));
#431=CARTESIAN_POINT('',(0.,0.,0.));
#432=CARTESIAN_POINT('',(6.,0.,0.));
#433=CARTESIAN_POINT('',(0.,0.,-5.58487600000001));
#434=CARTESIAN_POINT('',(0.,0.,0.));
#435=MECHANICAL_DESIGN_GEOMETRIC_PRESENTATION_REPRESENTATION('',(#240,#241,
#242,#243,#244),#436);
#436=(
GEOMETRIC_REPRESENTATION_CONTEXT(3)
GLOBAL_UNCERTAINTY_ASSIGNED_CONTEXT((#437))
GLOBAL_UNIT_ASSIGNED_CONTEXT((#443,#439,#438))
REPRESENTATION_CONTEXT('PMX06-05700-12N1','TOP_LEVEL_ASSEMBLY_PART')
);
#437=UNCERTAINTY_MEASURE_WITH_UNIT(LENGTH_MEASURE(2.E-5),#443,
'DISTANCE_ACCURACY_VALUE','Maximum Tolerance applied to model');
#438=(
NAMED_UNIT(*)
SI_UNIT($,.STERADIAN.)
SOLID_ANGLE_UNIT()
);
#439=(
CONVERSION_BASED_UNIT('DEGREE',#441)
NAMED_UNIT(#440)
PLANE_ANGLE_UNIT()
);
#440=DIMENSIONAL_EXPONENTS(0.,0.,0.,0.,0.,0.,0.);
#441=PLANE_ANGLE_MEASURE_WITH_UNIT(PLANE_ANGLE_MEASURE(0.0174532925),#442);
#442=(
NAMED_UNIT(*)
PLANE_ANGLE_UNIT()
SI_UNIT($,.RADIAN.)
);
#443=(
LENGTH_UNIT()
NAMED_UNIT(*)
SI_UNIT(.MILLI.,.METRE.)
);
ENDSEC;
END-ISO-10303-21;
