ISO-10303-21;
HEADER;
/* Generated by software containing ST-Developer
 * from STEP Tools, Inc. (www.steptools.com) 
 */
/* OPTION: using custom schema-name function */

FILE_DESCRIPTION(
/* description */ (''),
/* implementation_level */ '2;1');

FILE_NAME(
/* name */ 'PMX06-03700-12N1.stp',
/* time_stamp */ '2018-03-16T14:54:19+05:00',
/* author */ (''),
/* organization */ (''),
/* preprocessor_version */ 'ST-DEVELOPER v16',
/* originating_system */ 'SIEMENS PLM Software NX 11.0',
/* authorisation */ '');

FILE_SCHEMA (('AUTOMOTIVE_DESIGN { 1 0 10303 214 3 1 1 1 }'));
ENDSEC;

DATA;
#10=CONSTRUCTIVE_GEOMETRY_REPRESENTATION_RELATIONSHIP(
'supplemental geometry','',#32,#11);
#11=CONSTRUCTIVE_GEOMETRY_REPRESENTATION('supplemental geometry',(#215,
#216,#217),#356);
#12=PROPERTY_DEFINITION_REPRESENTATION(#16,#14);
#13=PROPERTY_DEFINITION_REPRESENTATION(#17,#15);
#14=REPRESENTATION('',(#18),#356);
#15=REPRESENTATION('',(#19),#356);
#16=PROPERTY_DEFINITION('pmi validation property','',#23);
#17=PROPERTY_DEFINITION('pmi validation property','',#23);
#18=VALUE_REPRESENTATION_ITEM('number of annotations',COUNT_MEASURE(0.));
#19=VALUE_REPRESENTATION_ITEM('number of views',COUNT_MEASURE(0.));
#20=SHAPE_REPRESENTATION_RELATIONSHIP('None',
'relationship between PMX06-03700-12N1-None and PMX06-03700-12N1-None',
#32,#21);
#21=ADVANCED_BREP_SHAPE_REPRESENTATION('PMX06-03700-12N1-None',(#44,#45),
#356);
#22=SHAPE_DEFINITION_REPRESENTATION(#23,#32);
#23=PRODUCT_DEFINITION_SHAPE('','',#24);
#24=PRODUCT_DEFINITION(' ','',#26,#25);
#25=PRODUCT_DEFINITION_CONTEXT('part definition',#31,'design');
#26=PRODUCT_DEFINITION_FORMATION_WITH_SPECIFIED_SOURCE(' ',' ',#28,
 .NOT_KNOWN.);
#27=PRODUCT_RELATED_PRODUCT_CATEGORY('part','',(#28));
#28=PRODUCT('inpu15CC245Dgb1g','inpu15CC245Dgb1g',' ',(#29));
#29=PRODUCT_CONTEXT(' ',#31,'mechanical');
#30=APPLICATION_PROTOCOL_DEFINITION('international standard',
'automotive_design',2010,#31);
#31=APPLICATION_CONTEXT(
'core data for automotive mechanical design processes');
#32=SHAPE_REPRESENTATION('PMX06-03700-12N1-None',(#214),#356);
#33=TOROIDAL_SURFACE('',#227,8.937377,4.1873764778714);
#34=SURFACE_STYLE_USAGE(.BOTH.,#36);
#35=SURFACE_STYLE_USAGE(.BOTH.,#37);
#36=SURFACE_SIDE_STYLE('',(#38));
#37=SURFACE_SIDE_STYLE('',(#39));
#38=SURFACE_STYLE_FILL_AREA(#40);
#39=SURFACE_STYLE_FILL_AREA(#41);
#40=FILL_AREA_STYLE('',(#42));
#41=FILL_AREA_STYLE('',(#43));
#42=FILL_AREA_STYLE_COLOUR('',#210);
#43=FILL_AREA_STYLE_COLOUR('',#210);
#44=MANIFOLD_SOLID_BREP('NOCUT',#46);
#45=MANIFOLD_SOLID_BREP('NOCUT',#47);
#46=CLOSED_SHELL('',(#77,#78,#79,#80));
#47=CLOSED_SHELL('',(#81,#82,#83,#84,#85,#86,#87,#88,#89,#90,#91));
#48=CYLINDRICAL_SURFACE('',#224,6.0000000000001);
#49=CYLINDRICAL_SURFACE('',#234,4.5);
#50=CYLINDRICAL_SURFACE('',#240,4.89999999999999);
#51=CYLINDRICAL_SURFACE('',#245,3.);
#52=CONICAL_SURFACE('',#223,4.965,45.0000000000025);
#53=CONICAL_SURFACE('',#232,4.5,29.9999488853515);
#54=CONICAL_SURFACE('',#238,4.89999999999999,15.0000431707571);
#55=FACE_BOUND('',#105,.T.);
#56=FACE_BOUND('',#106,.T.);
#57=FACE_BOUND('',#107,.T.);
#58=FACE_BOUND('',#108,.T.);
#59=FACE_BOUND('',#109,.T.);
#60=FACE_BOUND('',#110,.T.);
#61=FACE_BOUND('',#111,.T.);
#62=FACE_BOUND('',#112,.T.);
#63=FACE_BOUND('',#113,.T.);
#64=FACE_BOUND('',#114,.T.);
#65=FACE_BOUND('',#115,.T.);
#66=FACE_BOUND('',#116,.T.);
#67=FACE_BOUND('',#117,.T.);
#68=FACE_BOUND('',#118,.T.);
#69=FACE_BOUND('',#119,.T.);
#70=FACE_BOUND('',#120,.T.);
#71=FACE_BOUND('',#121,.T.);
#72=FACE_BOUND('',#122,.T.);
#73=FACE_BOUND('',#123,.T.);
#74=FACE_BOUND('',#124,.T.);
#75=FACE_BOUND('',#127,.T.);
#76=FACE_BOUND('',#128,.T.);
#77=ADVANCED_FACE('',(#99),#92,.T.);
#78=ADVANCED_FACE('',(#100),#93,.F.);
#79=ADVANCED_FACE('',(#55,#56),#52,.T.);
#80=ADVANCED_FACE('',(#57,#58),#48,.T.);
#81=ADVANCED_FACE('',(#59,#60),#33,.F.);
#82=ADVANCED_FACE('',(#61,#62),#94,.F.);
#83=ADVANCED_FACE('',(#63,#64),#53,.T.);
#84=ADVANCED_FACE('',(#65,#66),#49,.T.);
#85=ADVANCED_FACE('',(#67,#68),#95,.F.);
#86=ADVANCED_FACE('',(#69,#70),#54,.T.);
#87=ADVANCED_FACE('',(#71,#72),#50,.T.);
#88=ADVANCED_FACE('',(#73,#74),#96,.F.);
#89=ADVANCED_FACE('',(#101),#97,.F.);
#90=ADVANCED_FACE('',(#102),#98,.F.);
#91=ADVANCED_FACE('',(#75,#76),#51,.F.);
#92=PLANE('',#219);
#93=PLANE('',#221);
#94=PLANE('',#230);
#95=PLANE('',#236);
#96=PLANE('',#241);
#97=PLANE('',#242);
#98=PLANE('',#244);
#99=FACE_OUTER_BOUND('',#103,.T.);
#100=FACE_OUTER_BOUND('',#104,.T.);
#101=FACE_OUTER_BOUND('',#125,.T.);
#102=FACE_OUTER_BOUND('',#126,.T.);
#103=EDGE_LOOP('',(#129));
#104=EDGE_LOOP('',(#130));
#105=EDGE_LOOP('',(#131));
#106=EDGE_LOOP('',(#132));
#107=EDGE_LOOP('',(#133));
#108=EDGE_LOOP('',(#134));
#109=EDGE_LOOP('',(#135));
#110=EDGE_LOOP('',(#136));
#111=EDGE_LOOP('',(#137));
#112=EDGE_LOOP('',(#138));
#113=EDGE_LOOP('',(#139));
#114=EDGE_LOOP('',(#140));
#115=EDGE_LOOP('',(#141));
#116=EDGE_LOOP('',(#142));
#117=EDGE_LOOP('',(#143));
#118=EDGE_LOOP('',(#144));
#119=EDGE_LOOP('',(#145));
#120=EDGE_LOOP('',(#146));
#121=EDGE_LOOP('',(#147));
#122=EDGE_LOOP('',(#148));
#123=EDGE_LOOP('',(#149));
#124=EDGE_LOOP('',(#150));
#125=EDGE_LOOP('',(#151));
#126=EDGE_LOOP('',(#152));
#127=EDGE_LOOP('',(#153));
#128=EDGE_LOOP('',(#154));
#129=ORIENTED_EDGE('',*,*,#168,.T.);
#130=ORIENTED_EDGE('',*,*,#169,.F.);
#131=ORIENTED_EDGE('',*,*,#170,.F.);
#132=ORIENTED_EDGE('',*,*,#169,.T.);
#133=ORIENTED_EDGE('',*,*,#168,.F.);
#134=ORIENTED_EDGE('',*,*,#170,.T.);
#135=ORIENTED_EDGE('',*,*,#171,.T.);
#136=ORIENTED_EDGE('',*,*,#172,.T.);
#137=ORIENTED_EDGE('',*,*,#173,.T.);
#138=ORIENTED_EDGE('',*,*,#174,.T.);
#139=ORIENTED_EDGE('',*,*,#174,.F.);
#140=ORIENTED_EDGE('',*,*,#175,.T.);
#141=ORIENTED_EDGE('',*,*,#175,.F.);
#142=ORIENTED_EDGE('',*,*,#176,.T.);
#143=ORIENTED_EDGE('',*,*,#176,.F.);
#144=ORIENTED_EDGE('',*,*,#177,.T.);
#145=ORIENTED_EDGE('',*,*,#177,.F.);
#146=ORIENTED_EDGE('',*,*,#178,.T.);
#147=ORIENTED_EDGE('',*,*,#179,.F.);
#148=ORIENTED_EDGE('',*,*,#178,.F.);
#149=ORIENTED_EDGE('',*,*,#172,.F.);
#150=ORIENTED_EDGE('',*,*,#179,.T.);
#151=ORIENTED_EDGE('',*,*,#171,.F.);
#152=ORIENTED_EDGE('',*,*,#180,.T.);
#153=ORIENTED_EDGE('',*,*,#180,.F.);
#154=ORIENTED_EDGE('',*,*,#173,.F.);
#155=VERTEX_POINT('',#315);
#156=VERTEX_POINT('',#318);
#157=VERTEX_POINT('',#321);
#158=VERTEX_POINT('',#325);
#159=VERTEX_POINT('',#327);
#160=VERTEX_POINT('',#330);
#161=VERTEX_POINT('',#332);
#162=VERTEX_POINT('',#335);
#163=VERTEX_POINT('',#338);
#164=VERTEX_POINT('',#341);
#165=VERTEX_POINT('',#344);
#166=VERTEX_POINT('',#347);
#167=VERTEX_POINT('',#352);
#168=EDGE_CURVE('',#155,#155,#181,.T.);
#169=EDGE_CURVE('',#156,#156,#182,.T.);
#170=EDGE_CURVE('',#157,#157,#183,.T.);
#171=EDGE_CURVE('',#158,#158,#184,.T.);
#172=EDGE_CURVE('',#159,#159,#185,.T.);
#173=EDGE_CURVE('',#160,#160,#186,.T.);
#174=EDGE_CURVE('',#161,#161,#187,.T.);
#175=EDGE_CURVE('',#162,#162,#188,.T.);
#176=EDGE_CURVE('',#163,#163,#189,.T.);
#177=EDGE_CURVE('',#164,#164,#190,.T.);
#178=EDGE_CURVE('',#165,#165,#191,.T.);
#179=EDGE_CURVE('',#166,#166,#192,.T.);
#180=EDGE_CURVE('',#167,#167,#193,.T.);
#181=CIRCLE('',#218,6.0000000000001);
#182=CIRCLE('',#220,4.965);
#183=CIRCLE('',#222,6.0000000000001);
#184=CIRCLE('',#225,6.0000000000001);
#185=CIRCLE('',#226,4.86732654430455);
#186=CIRCLE('',#228,3.);
#187=CIRCLE('',#229,4.336325);
#188=CIRCLE('',#231,4.5);
#189=CIRCLE('',#233,4.5);
#190=CIRCLE('',#235,4.766025);
#191=CIRCLE('',#237,4.89999999999999);
#192=CIRCLE('',#239,4.89999999999999);
#193=CIRCLE('',#243,3.);
#194=PRESENTATION_LAYER_ASSIGNMENT('1','Layer 1',(#215,#216,#217,#44));
#195=PRESENTATION_LAYER_ASSIGNMENT('2','Layer 2',(#45));
#196=STYLED_ITEM('',(#201),#215);
#197=STYLED_ITEM('',(#202),#216);
#198=STYLED_ITEM('',(#203),#217);
#199=STYLED_ITEM('',(#204),#44);
#200=STYLED_ITEM('',(#205),#45);
#201=PRESENTATION_STYLE_ASSIGNMENT((#206));
#202=PRESENTATION_STYLE_ASSIGNMENT((#207));
#203=PRESENTATION_STYLE_ASSIGNMENT((#208));
#204=PRESENTATION_STYLE_ASSIGNMENT((#34));
#205=PRESENTATION_STYLE_ASSIGNMENT((#35));
#206=CURVE_STYLE('',#211,POSITIVE_LENGTH_MEASURE(0.18),#209);
#207=CURVE_STYLE('',#212,POSITIVE_LENGTH_MEASURE(0.18),#209);
#208=CURVE_STYLE('',#213,POSITIVE_LENGTH_MEASURE(0.18),#209);
#209=COLOUR_RGB('Strong Stone',0.576470588235294,0.54508278019379,0.392156862745098);
#210=COLOUR_RGB('Medium Gray',0.490196078431373,0.490196078431373,0.490196078431373);
#211=DRAUGHTING_PRE_DEFINED_CURVE_FONT('continuous');
#212=DRAUGHTING_PRE_DEFINED_CURVE_FONT('continuous');
#213=DRAUGHTING_PRE_DEFINED_CURVE_FONT('continuous');
#214=AXIS2_PLACEMENT_3D('',#310,#246,#247);
#215=AXIS2_PLACEMENT_3D('MCS',#311,#248,#249);
#216=AXIS2_PLACEMENT_3D('PCS',#312,#250,#251);
#217=AXIS2_PLACEMENT_3D('CSW',#313,#252,#253);
#218=AXIS2_PLACEMENT_3D('',#314,#254,#255);
#219=AXIS2_PLACEMENT_3D('',#316,#256,#257);
#220=AXIS2_PLACEMENT_3D('',#317,#258,#259);
#221=AXIS2_PLACEMENT_3D('',#319,#260,#261);
#222=AXIS2_PLACEMENT_3D('',#320,#262,#263);
#223=AXIS2_PLACEMENT_3D('',#322,#264,#265);
#224=AXIS2_PLACEMENT_3D('',#323,#266,#267);
#225=AXIS2_PLACEMENT_3D('',#324,#268,#269);
#226=AXIS2_PLACEMENT_3D('',#326,#270,#271);
#227=AXIS2_PLACEMENT_3D('',#328,#272,#273);
#228=AXIS2_PLACEMENT_3D('',#329,#274,#275);
#229=AXIS2_PLACEMENT_3D('',#331,#276,#277);
#230=AXIS2_PLACEMENT_3D('',#333,#278,#279);
#231=AXIS2_PLACEMENT_3D('',#334,#280,#281);
#232=AXIS2_PLACEMENT_3D('',#336,#282,#283);
#233=AXIS2_PLACEMENT_3D('',#337,#284,#285);
#234=AXIS2_PLACEMENT_3D('',#339,#286,#287);
#235=AXIS2_PLACEMENT_3D('',#340,#288,#289);
#236=AXIS2_PLACEMENT_3D('',#342,#290,#291);
#237=AXIS2_PLACEMENT_3D('',#343,#292,#293);
#238=AXIS2_PLACEMENT_3D('',#345,#294,#295);
#239=AXIS2_PLACEMENT_3D('',#346,#296,#297);
#240=AXIS2_PLACEMENT_3D('',#348,#298,#299);
#241=AXIS2_PLACEMENT_3D('',#349,#300,#301);
#242=AXIS2_PLACEMENT_3D('',#350,#302,#303);
#243=AXIS2_PLACEMENT_3D('',#351,#304,#305);
#244=AXIS2_PLACEMENT_3D('',#353,#306,#307);
#245=AXIS2_PLACEMENT_3D('',#354,#308,#309);
#246=DIRECTION('',(0.,0.,1.));
#247=DIRECTION('',(1.,0.,0.));
#248=DIRECTION('',(0.,0.,1.));
#249=DIRECTION('',(1.,0.,0.));
#250=DIRECTION('',(0.,0.,1.));
#251=DIRECTION('',(1.,0.,0.));
#252=DIRECTION('',(0.,0.,1.));
#253=DIRECTION('',(1.,0.,0.));
#254=DIRECTION('',(0.,0.,-1.));
#255=DIRECTION('',(-1.,0.,0.));
#256=DIRECTION('',(0.,0.,-1.));
#257=DIRECTION('',(-1.,0.,0.));
#258=DIRECTION('',(0.,0.,-1.));
#259=DIRECTION('',(-1.,0.,0.));
#260=DIRECTION('',(0.,0.,-1.));
#261=DIRECTION('',(-1.,0.,0.));
#262=DIRECTION('',(0.,0.,-1.));
#263=DIRECTION('',(-1.,0.,0.));
#264=DIRECTION('',(0.,0.,-1.));
#265=DIRECTION('',(-1.,0.,4.14276750169804E-17));
#266=DIRECTION('',(0.,0.,-1.));
#267=DIRECTION('',(-1.,0.,0.));
#268=DIRECTION('',(0.,0.,-1.));
#269=DIRECTION('',(-1.,0.,0.));
#270=DIRECTION('',(0.,0.,1.));
#271=DIRECTION('',(1.,0.,0.));
#272=DIRECTION('',(0.,0.,-1.));
#273=DIRECTION('',(-1.,0.,0.));
#274=DIRECTION('',(0.,0.,1.));
#275=DIRECTION('',(1.,0.,0.));
#276=DIRECTION('',(0.,0.,-1.));
#277=DIRECTION('',(-1.,0.,0.));
#278=DIRECTION('',(0.,0.,1.));
#279=DIRECTION('',(1.,0.,0.));
#280=DIRECTION('',(0.,0.,-1.));
#281=DIRECTION('',(-1.,0.,0.));
#282=DIRECTION('',(0.,0.,1.));
#283=DIRECTION('',(1.,0.,3.57767717403859E-17));
#284=DIRECTION('',(0.,0.,-1.));
#285=DIRECTION('',(-1.,0.,0.));
#286=DIRECTION('',(0.,0.,-1.));
#287=DIRECTION('',(-1.,0.,0.));
#288=DIRECTION('',(0.,0.,-1.));
#289=DIRECTION('',(-1.,0.,0.));
#290=DIRECTION('',(0.,0.,1.));
#291=DIRECTION('',(1.,0.,0.));
#292=DIRECTION('',(0.,0.,-1.));
#293=DIRECTION('',(-1.,0.,0.));
#294=DIRECTION('',(0.,0.,1.));
#295=DIRECTION('',(1.,0.,8.90090843455262E-17));
#296=DIRECTION('',(0.,0.,1.));
#297=DIRECTION('',(-1.,0.,0.));
#298=DIRECTION('',(0.,0.,-1.));
#299=DIRECTION('',(-1.,0.,0.));
#300=DIRECTION('',(0.,0.,-1.));
#301=DIRECTION('',(-1.,0.,0.));
#302=DIRECTION('',(0.,0.,-1.));
#303=DIRECTION('',(-1.,0.,0.));
#304=DIRECTION('',(0.,0.,-1.));
#305=DIRECTION('',(1.,0.,0.));
#306=DIRECTION('',(0.,0.,1.));
#307=DIRECTION('',(1.,0.,0.));
#308=DIRECTION('',(0.,0.,1.));
#309=DIRECTION('',(1.,0.,0.));
#310=CARTESIAN_POINT('',(0.,0.,0.));
#311=CARTESIAN_POINT('',(0.,0.,0.));
#312=CARTESIAN_POINT('',(0.,0.,45.));
#313=CARTESIAN_POINT('',(0.,0.,-32.));
#314=CARTESIAN_POINT('',(0.,0.,0.));
#315=CARTESIAN_POINT('',(-6.0000000000001,0.,0.));
#316=CARTESIAN_POINT('',(0.,0.,0.));
#317=CARTESIAN_POINT('',(0.,0.,45.));
#318=CARTESIAN_POINT('',(-4.965,0.,45.));
#319=CARTESIAN_POINT('',(0.,0.,45.));
#320=CARTESIAN_POINT('',(0.,0.,43.965));
#321=CARTESIAN_POINT('',(-6.0000000000001,0.,43.965));
#322=CARTESIAN_POINT('',(0.,0.,45.));
#323=CARTESIAN_POINT('',(0.,0.,-35.798797636302));
#324=CARTESIAN_POINT('',(0.,0.,0.));
#325=CARTESIAN_POINT('',(-6.0000000000001,0.,0.));
#326=CARTESIAN_POINT('',(0.,0.,-2.00000000000002));
#327=CARTESIAN_POINT('',(4.86732654430455,0.,-2.00000000000002));
#328=CARTESIAN_POINT('',(0.,0.,-2.98428200000001));
#329=CARTESIAN_POINT('',(0.,0.,-32.));
#330=CARTESIAN_POINT('',(3.,0.,-32.));
#331=CARTESIAN_POINT('',(0.,0.,-32.));
#332=CARTESIAN_POINT('',(-4.336325,0.,-32.));
#333=CARTESIAN_POINT('',(0.,4.33632500449581,-31.9999999980533));
#334=CARTESIAN_POINT('',(0.,0.,-31.716506));
#335=CARTESIAN_POINT('',(-4.5,0.,-31.716506));
#336=CARTESIAN_POINT('',(0.,0.,-31.716506));
#337=CARTESIAN_POINT('',(0.,0.,-29.95));
#338=CARTESIAN_POINT('',(-4.5,0.,-29.95));
#339=CARTESIAN_POINT('',(0.,0.,-36.798797636302));
#340=CARTESIAN_POINT('',(0.,0.,-29.95));
#341=CARTESIAN_POINT('',(-4.766025,0.,-29.95));
#342=CARTESIAN_POINT('',(0.,4.766025,-29.95));
#343=CARTESIAN_POINT('',(0.,0.,-29.45));
#344=CARTESIAN_POINT('',(-4.89999999999999,0.,-29.45));
#345=CARTESIAN_POINT('',(0.,0.,-29.45));
#346=CARTESIAN_POINT('',(0.,0.,-2.00000000000002));
#347=CARTESIAN_POINT('',(-4.89999999999999,0.,-2.00000000000002));
#348=CARTESIAN_POINT('',(0.,0.,-35.798797636302));
#349=CARTESIAN_POINT('',(0.,4.45,-2.00000000000002));
#350=CARTESIAN_POINT('',(0.,0.,0.));
#351=CARTESIAN_POINT('',(0.,0.,-21.));
#352=CARTESIAN_POINT('',(3.,0.,-21.));
#353=CARTESIAN_POINT('',(0.,0.,-21.));
#354=CARTESIAN_POINT('',(0.,0.,-32.));
#355=MECHANICAL_DESIGN_GEOMETRIC_PRESENTATION_REPRESENTATION('',(#196,#197,
#198,#199,#200),#356);
#356=(
GEOMETRIC_REPRESENTATION_CONTEXT(3)
GLOBAL_UNCERTAINTY_ASSIGNED_CONTEXT((#357))
GLOBAL_UNIT_ASSIGNED_CONTEXT((#363,#359,#358))
REPRESENTATION_CONTEXT('PMX06-03700-12N1','TOP_LEVEL_ASSEMBLY_PART')
);
#357=UNCERTAINTY_MEASURE_WITH_UNIT(LENGTH_MEASURE(2.E-5),#363,
'DISTANCE_ACCURACY_VALUE','Maximum Tolerance applied to model');
#358=(
NAMED_UNIT(*)
SI_UNIT($,.STERADIAN.)
SOLID_ANGLE_UNIT()
);
#359=(
CONVERSION_BASED_UNIT('DEGREE',#361)
NAMED_UNIT(#360)
PLANE_ANGLE_UNIT()
);
#360=DIMENSIONAL_EXPONENTS(0.,0.,0.,0.,0.,0.,0.);
#361=PLANE_ANGLE_MEASURE_WITH_UNIT(PLANE_ANGLE_MEASURE(0.0174532925),#362);
#362=(
NAMED_UNIT(*)
PLANE_ANGLE_UNIT()
SI_UNIT($,.RADIAN.)
);
#363=(
LENGTH_UNIT()
NAMED_UNIT(*)
SI_UNIT(.MILLI.,.METRE.)
);
ENDSEC;
END-ISO-10303-21;
