ISO-10303-21;
HEADER;
/* Generated by software containing ST-Developer
 * from STEP Tools, Inc. (www.steptools.com) 
 */
/* OPTION: using custom schema-name function */

FILE_DESCRIPTION(
/* description */ (''),
/* implementation_level */ '2;1');

FILE_NAME(
/* name */ 'PMX05B-10000-10N1.stp',
/* time_stamp */ '2018-07-12T16:31:57+05:00',
/* author */ (''),
/* organization */ (''),
/* preprocessor_version */ 'ST-DEVELOPER v16',
/* originating_system */ 'SIEMENS PLM Software NX 11.0',
/* authorisation */ '');

FILE_SCHEMA (('AUTOMOTIVE_DESIGN { 1 0 10303 214 3 1 1 1 }'));
ENDSEC;

DATA;
#10=CONSTRUCTIVE_GEOMETRY_REPRESENTATION_RELATIONSHIP(
'supplemental geometry','',#24,#11);
#11=CONSTRUCTIVE_GEOMETRY_REPRESENTATION('supplemental geometry',(#167,
#168,#169,#170),#276);
#12=SHAPE_REPRESENTATION_RELATIONSHIP('None',
'relationship between PMX05B-10000-10N1-None and PMX05B-10000-10N1-Non
e',#24,#13);
#13=ADVANCED_BREP_SHAPE_REPRESENTATION('PMX05B-10000-10N1-None',(#35,#36),
#276);
#14=SHAPE_DEFINITION_REPRESENTATION(#15,#24);
#15=PRODUCT_DEFINITION_SHAPE('','',#16);
#16=PRODUCT_DEFINITION(' ','',#18,#17);
#17=PRODUCT_DEFINITION_CONTEXT('part definition',#23,'design');
#18=PRODUCT_DEFINITION_FORMATION_WITH_SPECIFIED_SOURCE(' ',' ',#20,
 .NOT_KNOWN.);
#19=PRODUCT_RELATED_PRODUCT_CATEGORY('part','',(#20));
#20=PRODUCT('PMX05B-10000-10N1','PMX05B-10000-10N1',' ',(#21));
#21=PRODUCT_CONTEXT(' ',#23,'mechanical');
#22=APPLICATION_PROTOCOL_DEFINITION('international standard',
'automotive_design',2010,#23);
#23=APPLICATION_CONTEXT(
'core data for automotive mechanical design processes');
#24=SHAPE_REPRESENTATION('PMX05B-10000-10N1-None',(#166),#276);
#25=SURFACE_STYLE_USAGE(.BOTH.,#27);
#26=SURFACE_STYLE_USAGE(.BOTH.,#28);
#27=SURFACE_SIDE_STYLE('',(#29));
#28=SURFACE_SIDE_STYLE('',(#30));
#29=SURFACE_STYLE_FILL_AREA(#31);
#30=SURFACE_STYLE_FILL_AREA(#32);
#31=FILL_AREA_STYLE('',(#33));
#32=FILL_AREA_STYLE('',(#34));
#33=FILL_AREA_STYLE_COLOUR('',#161);
#34=FILL_AREA_STYLE_COLOUR('',#161);
#35=MANIFOLD_SOLID_BREP('NOCUT',#37);
#36=MANIFOLD_SOLID_BREP('NOCUT',#38);
#37=CLOSED_SHELL('',(#60,#61,#62,#63,#64,#65,#66));
#38=CLOSED_SHELL('',(#67,#68,#69,#70));
#39=TOROIDAL_SURFACE('',#182,16.800169,13.3001691635452);
#40=CYLINDRICAL_SURFACE('',#176,3.375);
#41=CYLINDRICAL_SURFACE('',#180,3.5);
#42=CYLINDRICAL_SURFACE('',#189,4.99999991827805);
#43=CONICAL_SURFACE('',#174,3.21132499999999,30.0000363998672);
#44=CONICAL_SURFACE('',#178,3.375,59.9998274028487);
#45=CONICAL_SURFACE('',#187,5.,45.0000000000008);
#46=FACE_BOUND('',#80,.T.);
#47=FACE_BOUND('',#81,.T.);
#48=FACE_BOUND('',#82,.T.);
#49=FACE_BOUND('',#83,.T.);
#50=FACE_BOUND('',#84,.T.);
#51=FACE_BOUND('',#85,.T.);
#52=FACE_BOUND('',#86,.T.);
#53=FACE_BOUND('',#87,.T.);
#54=FACE_BOUND('',#88,.T.);
#55=FACE_BOUND('',#89,.T.);
#56=FACE_BOUND('',#92,.T.);
#57=FACE_BOUND('',#93,.T.);
#58=FACE_BOUND('',#94,.T.);
#59=FACE_BOUND('',#95,.T.);
#60=ADVANCED_FACE('',(#75),#71,.T.);
#61=ADVANCED_FACE('',(#46,#47),#43,.T.);
#62=ADVANCED_FACE('',(#48,#49),#40,.T.);
#63=ADVANCED_FACE('',(#50,#51),#44,.T.);
#64=ADVANCED_FACE('',(#52,#53),#41,.T.);
#65=ADVANCED_FACE('',(#54,#55),#39,.F.);
#66=ADVANCED_FACE('',(#76),#72,.T.);
#67=ADVANCED_FACE('',(#77),#73,.T.);
#68=ADVANCED_FACE('',(#56,#57),#45,.T.);
#69=ADVANCED_FACE('',(#58,#59),#42,.T.);
#70=ADVANCED_FACE('',(#78),#74,.F.);
#71=PLANE('',#172);
#72=PLANE('',#183);
#73=PLANE('',#185);
#74=PLANE('',#190);
#75=FACE_OUTER_BOUND('',#79,.T.);
#76=FACE_OUTER_BOUND('',#90,.T.);
#77=FACE_OUTER_BOUND('',#91,.T.);
#78=FACE_OUTER_BOUND('',#96,.T.);
#79=EDGE_LOOP('',(#97));
#80=EDGE_LOOP('',(#98));
#81=EDGE_LOOP('',(#99));
#82=EDGE_LOOP('',(#100));
#83=EDGE_LOOP('',(#101));
#84=EDGE_LOOP('',(#102));
#85=EDGE_LOOP('',(#103));
#86=EDGE_LOOP('',(#104));
#87=EDGE_LOOP('',(#105));
#88=EDGE_LOOP('',(#106));
#89=EDGE_LOOP('',(#107));
#90=EDGE_LOOP('',(#108));
#91=EDGE_LOOP('',(#109));
#92=EDGE_LOOP('',(#110));
#93=EDGE_LOOP('',(#111));
#94=EDGE_LOOP('',(#112));
#95=EDGE_LOOP('',(#113));
#96=EDGE_LOOP('',(#114));
#97=ORIENTED_EDGE('',*,*,#124,.T.);
#98=ORIENTED_EDGE('',*,*,#125,.T.);
#99=ORIENTED_EDGE('',*,*,#124,.F.);
#100=ORIENTED_EDGE('',*,*,#126,.T.);
#101=ORIENTED_EDGE('',*,*,#125,.F.);
#102=ORIENTED_EDGE('',*,*,#127,.T.);
#103=ORIENTED_EDGE('',*,*,#126,.F.);
#104=ORIENTED_EDGE('',*,*,#128,.T.);
#105=ORIENTED_EDGE('',*,*,#127,.F.);
#106=ORIENTED_EDGE('',*,*,#129,.T.);
#107=ORIENTED_EDGE('',*,*,#128,.F.);
#108=ORIENTED_EDGE('',*,*,#129,.F.);
#109=ORIENTED_EDGE('',*,*,#130,.F.);
#110=ORIENTED_EDGE('',*,*,#130,.T.);
#111=ORIENTED_EDGE('',*,*,#131,.F.);
#112=ORIENTED_EDGE('',*,*,#131,.T.);
#113=ORIENTED_EDGE('',*,*,#132,.F.);
#114=ORIENTED_EDGE('',*,*,#132,.T.);
#115=VERTEX_POINT('',#247);
#116=VERTEX_POINT('',#250);
#117=VERTEX_POINT('',#253);
#118=VERTEX_POINT('',#256);
#119=VERTEX_POINT('',#259);
#120=VERTEX_POINT('',#262);
#121=VERTEX_POINT('',#266);
#122=VERTEX_POINT('',#269);
#123=VERTEX_POINT('',#272);
#124=EDGE_CURVE('',#115,#115,#133,.T.);
#125=EDGE_CURVE('',#116,#116,#134,.T.);
#126=EDGE_CURVE('',#117,#117,#135,.T.);
#127=EDGE_CURVE('',#118,#118,#136,.T.);
#128=EDGE_CURVE('',#119,#119,#137,.T.);
#129=EDGE_CURVE('',#120,#120,#138,.T.);
#130=EDGE_CURVE('',#121,#121,#139,.T.);
#131=EDGE_CURVE('',#122,#122,#140,.T.);
#132=EDGE_CURVE('',#123,#123,#141,.T.);
#133=CIRCLE('',#171,3.21132499999999);
#134=CIRCLE('',#173,3.375);
#135=CIRCLE('',#175,3.375);
#136=CIRCLE('',#177,3.5);
#137=CIRCLE('',#179,3.5);
#138=CIRCLE('',#181,4.99999991827805);
#139=CIRCLE('',#184,3.965);
#140=CIRCLE('',#186,5.);
#141=CIRCLE('',#188,4.99999991827805);
#142=PRESENTATION_LAYER_ASSIGNMENT('1','Layer 1',(#167,#168,#169,#170,#36));
#143=PRESENTATION_LAYER_ASSIGNMENT('2','Layer 2',(#35));
#144=STYLED_ITEM('',(#150),#167);
#145=STYLED_ITEM('',(#151),#168);
#146=STYLED_ITEM('',(#152),#169);
#147=STYLED_ITEM('',(#153),#170);
#148=STYLED_ITEM('',(#154),#35);
#149=STYLED_ITEM('',(#155),#36);
#150=PRESENTATION_STYLE_ASSIGNMENT((#156));
#151=PRESENTATION_STYLE_ASSIGNMENT((#157));
#152=PRESENTATION_STYLE_ASSIGNMENT((#158));
#153=PRESENTATION_STYLE_ASSIGNMENT((#159));
#154=PRESENTATION_STYLE_ASSIGNMENT((#25));
#155=PRESENTATION_STYLE_ASSIGNMENT((#26));
#156=CURVE_STYLE('',#162,POSITIVE_LENGTH_MEASURE(0.13),#160);
#157=CURVE_STYLE('',#163,POSITIVE_LENGTH_MEASURE(0.18),#160);
#158=CURVE_STYLE('',#164,POSITIVE_LENGTH_MEASURE(0.18),#160);
#159=CURVE_STYLE('',#165,POSITIVE_LENGTH_MEASURE(0.18),#160);
#160=COLOUR_RGB('Strong Stone',0.576470588235294,0.54508278019379,0.392156862745098);
#161=COLOUR_RGB('Medium Gray',0.490196078431373,0.490196078431373,0.490196078431373);
#162=DRAUGHTING_PRE_DEFINED_CURVE_FONT('continuous');
#163=DRAUGHTING_PRE_DEFINED_CURVE_FONT('continuous');
#164=DRAUGHTING_PRE_DEFINED_CURVE_FONT('continuous');
#165=DRAUGHTING_PRE_DEFINED_CURVE_FONT('continuous');
#166=AXIS2_PLACEMENT_3D('',#241,#191,#192);
#167=AXIS2_PLACEMENT_3D('',#242,#193,#194);
#168=AXIS2_PLACEMENT_3D('MCS',#243,#195,#196);
#169=AXIS2_PLACEMENT_3D('PCS',#244,#197,#198);
#170=AXIS2_PLACEMENT_3D('CIP',#245,#199,#200);
#171=AXIS2_PLACEMENT_3D('',#246,#201,#202);
#172=AXIS2_PLACEMENT_3D('',#248,#203,#204);
#173=AXIS2_PLACEMENT_3D('',#249,#205,#206);
#174=AXIS2_PLACEMENT_3D('',#251,#207,#208);
#175=AXIS2_PLACEMENT_3D('',#252,#209,#210);
#176=AXIS2_PLACEMENT_3D('',#254,#211,#212);
#177=AXIS2_PLACEMENT_3D('',#255,#213,#214);
#178=AXIS2_PLACEMENT_3D('',#257,#215,#216);
#179=AXIS2_PLACEMENT_3D('',#258,#217,#218);
#180=AXIS2_PLACEMENT_3D('',#260,#219,#220);
#181=AXIS2_PLACEMENT_3D('',#261,#221,#222);
#182=AXIS2_PLACEMENT_3D('',#263,#223,#224);
#183=AXIS2_PLACEMENT_3D('',#264,#225,#226);
#184=AXIS2_PLACEMENT_3D('',#265,#227,#228);
#185=AXIS2_PLACEMENT_3D('',#267,#229,#230);
#186=AXIS2_PLACEMENT_3D('',#268,#231,#232);
#187=AXIS2_PLACEMENT_3D('',#270,#233,#234);
#188=AXIS2_PLACEMENT_3D('',#271,#235,#236);
#189=AXIS2_PLACEMENT_3D('',#273,#237,#238);
#190=AXIS2_PLACEMENT_3D('',#274,#239,#240);
#191=DIRECTION('',(0.,0.,1.));
#192=DIRECTION('',(1.,0.,0.));
#193=DIRECTION('',(0.,0.,1.));
#194=DIRECTION('',(1.,0.,0.));
#195=DIRECTION('',(0.,0.,1.));
#196=DIRECTION('',(1.,0.,0.));
#197=DIRECTION('',(0.,0.,1.));
#198=DIRECTION('',(1.,0.,0.));
#199=DIRECTION('',(0.,0.,1.));
#200=DIRECTION('',(1.,0.,0.));
#201=DIRECTION('',(0.,0.,-1.));
#202=DIRECTION('',(-1.,0.,0.));
#203=DIRECTION('',(0.,0.,-1.));
#204=DIRECTION('',(-1.,0.,0.));
#205=DIRECTION('',(0.,0.,-1.));
#206=DIRECTION('',(-1.,0.,0.));
#207=DIRECTION('',(0.,0.,1.));
#208=DIRECTION('',(1.,0.,4.78080799641647E-17));
#209=DIRECTION('',(0.,0.,-1.));
#210=DIRECTION('',(-1.,0.,0.));
#211=DIRECTION('',(0.,0.,-1.));
#212=DIRECTION('',(-1.,0.,0.));
#213=DIRECTION('',(0.,0.,-1.));
#214=DIRECTION('',(-1.,0.,0.));
#215=DIRECTION('',(0.,0.,1.));
#216=DIRECTION('',(1.,0.,-2.39904537057294E-17));
#217=DIRECTION('',(0.,0.,-1.));
#218=DIRECTION('',(-1.,0.,0.));
#219=DIRECTION('',(0.,0.,-1.));
#220=DIRECTION('',(-1.,0.,0.));
#221=DIRECTION('',(0.,0.,-1.));
#222=DIRECTION('',(1.,0.,0.));
#223=DIRECTION('',(0.,0.,-1.));
#224=DIRECTION('',(-1.,0.,0.));
#225=DIRECTION('',(0.,0.,1.));
#226=DIRECTION('',(1.,0.,0.));
#227=DIRECTION('',(0.,0.,-1.));
#228=DIRECTION('',(-1.,0.,0.));
#229=DIRECTION('',(0.,0.,1.));
#230=DIRECTION('',(1.,0.,0.));
#231=DIRECTION('',(0.,0.,-1.));
#232=DIRECTION('',(-1.,0.,0.));
#233=DIRECTION('',(0.,0.,-1.));
#234=DIRECTION('',(-1.,0.,2.07131161310658E-17));
#235=DIRECTION('',(0.,0.,-1.));
#236=DIRECTION('',(1.,0.,0.));
#237=DIRECTION('',(0.,0.,-1.));
#238=DIRECTION('',(-1.,0.,0.));
#239=DIRECTION('',(0.,0.,1.));
#240=DIRECTION('',(1.,0.,0.));
#241=CARTESIAN_POINT('',(0.,0.,0.));
#242=CARTESIAN_POINT('',(0.,0.,0.));
#243=CARTESIAN_POINT('',(0.,0.,0.));
#244=CARTESIAN_POINT('',(0.,0.,40.));
#245=CARTESIAN_POINT('',(0.,0.,-97.));
#246=CARTESIAN_POINT('',(0.,0.,-97.));
#247=CARTESIAN_POINT('',(-3.21132499999999,0.,-97.));
#248=CARTESIAN_POINT('',(0.,-1.06581410364015E-14,-97.));
#249=CARTESIAN_POINT('',(0.,0.,-96.716507));
#250=CARTESIAN_POINT('',(-3.375,0.,-96.716507));
#251=CARTESIAN_POINT('',(0.,0.,-97.));
#252=CARTESIAN_POINT('',(0.,0.,-75.9013102857143));
#253=CARTESIAN_POINT('',(-3.375,0.,-75.9013102857143));
#254=CARTESIAN_POINT('',(0.,0.,0.));
#255=CARTESIAN_POINT('',(0.,0.,-75.829141));
#256=CARTESIAN_POINT('',(-3.5,0.,-75.829141));
#257=CARTESIAN_POINT('',(0.,0.,-75.9013102857143));
#258=CARTESIAN_POINT('',(0.,0.,-6.13600099999996));
#259=CARTESIAN_POINT('',(-3.5,0.,-6.13600099999996));
#260=CARTESIAN_POINT('',(0.,0.,0.));
#261=CARTESIAN_POINT('',(0.,0.,0.));
#262=CARTESIAN_POINT('',(4.99999991827805,0.,0.));
#263=CARTESIAN_POINT('',(0.,0.,-6.13600099999996));
#264=CARTESIAN_POINT('',(0.,0.,0.));
#265=CARTESIAN_POINT('',(0.,0.,40.));
#266=CARTESIAN_POINT('',(-3.965,0.,40.));
#267=CARTESIAN_POINT('',(0.,3.965,40.));
#268=CARTESIAN_POINT('',(0.,0.,38.965));
#269=CARTESIAN_POINT('',(-5.,0.,38.965));
#270=CARTESIAN_POINT('',(0.,0.,38.965));
#271=CARTESIAN_POINT('',(0.,0.,0.));
#272=CARTESIAN_POINT('',(4.99999991827805,0.,0.));
#273=CARTESIAN_POINT('',(0.,0.,0.));
#274=CARTESIAN_POINT('',(0.,0.,0.));
#275=MECHANICAL_DESIGN_GEOMETRIC_PRESENTATION_REPRESENTATION('',(#144,#145,
#146,#147,#148,#149),#276);
#276=(
GEOMETRIC_REPRESENTATION_CONTEXT(3)
GLOBAL_UNCERTAINTY_ASSIGNED_CONTEXT((#277))
GLOBAL_UNIT_ASSIGNED_CONTEXT((#283,#279,#278))
REPRESENTATION_CONTEXT('PMX05B-10000-10N1','TOP_LEVEL_ASSEMBLY_PART')
);
#277=UNCERTAINTY_MEASURE_WITH_UNIT(LENGTH_MEASURE(2.E-5),#283,
'DISTANCE_ACCURACY_VALUE','Maximum Tolerance applied to model');
#278=(
NAMED_UNIT(*)
SI_UNIT($,.STERADIAN.)
SOLID_ANGLE_UNIT()
);
#279=(
CONVERSION_BASED_UNIT('DEGREE',#281)
NAMED_UNIT(#280)
PLANE_ANGLE_UNIT()
);
#280=DIMENSIONAL_EXPONENTS(0.,0.,0.,0.,0.,0.,0.);
#281=PLANE_ANGLE_MEASURE_WITH_UNIT(PLANE_ANGLE_MEASURE(0.0174532925),#282);
#282=(
NAMED_UNIT(*)
PLANE_ANGLE_UNIT()
SI_UNIT($,.RADIAN.)
);
#283=(
LENGTH_UNIT()
NAMED_UNIT(*)
SI_UNIT(.MILLI.,.METRE.)
);
ENDSEC;
END-ISO-10303-21;
