ISO-10303-21;
HEADER;
/* Generated by software containing ST-Developer
 * from STEP Tools, Inc. (www.steptools.com) 
 */
/* OPTION: using custom schema-name function */

FILE_DESCRIPTION(
/* description */ (''),
/* implementation_level */ '2;1');

FILE_NAME(
/* name */ 'PMX05B-04100-10N1.stp',
/* time_stamp */ '2018-07-12T16:31:57+05:00',
/* author */ (''),
/* organization */ (''),
/* preprocessor_version */ 'ST-DEVELOPER v16',
/* originating_system */ 'SIEMENS PLM Software NX 11.0',
/* authorisation */ '');

FILE_SCHEMA (('AUTOMOTIVE_DESIGN { 1 0 10303 214 3 1 1 1 }'));
ENDSEC;

DATA;
#10=CONSTRUCTIVE_GEOMETRY_REPRESENTATION_RELATIONSHIP(
'supplemental geometry','',#24,#11);
#11=CONSTRUCTIVE_GEOMETRY_REPRESENTATION('supplemental geometry',(#171,
#172,#173,#174,#175),#284);
#12=SHAPE_REPRESENTATION_RELATIONSHIP('None',
'relationship between PMX05B-04100-10N1-None and PMX05B-04100-10N1-Non
e',#24,#13);
#13=ADVANCED_BREP_SHAPE_REPRESENTATION('PMX05B-04100-10N1-None',(#35,#36),
#284);
#14=SHAPE_DEFINITION_REPRESENTATION(#15,#24);
#15=PRODUCT_DEFINITION_SHAPE('','',#16);
#16=PRODUCT_DEFINITION(' ','',#18,#17);
#17=PRODUCT_DEFINITION_CONTEXT('part definition',#23,'design');
#18=PRODUCT_DEFINITION_FORMATION_WITH_SPECIFIED_SOURCE(' ',' ',#20,
 .NOT_KNOWN.);
#19=PRODUCT_RELATED_PRODUCT_CATEGORY('part','',(#20));
#20=PRODUCT('PMX05B-04100-10N1','PMX05B-04100-10N1',' ',(#21));
#21=PRODUCT_CONTEXT(' ',#23,'mechanical');
#22=APPLICATION_PROTOCOL_DEFINITION('international standard',
'automotive_design',2010,#23);
#23=APPLICATION_CONTEXT(
'core data for automotive mechanical design processes');
#24=SHAPE_REPRESENTATION('PMX05B-04100-10N1-None',(#170),#284);
#25=SURFACE_STYLE_USAGE(.BOTH.,#27);
#26=SURFACE_STYLE_USAGE(.BOTH.,#28);
#27=SURFACE_SIDE_STYLE('',(#29));
#28=SURFACE_SIDE_STYLE('',(#30));
#29=SURFACE_STYLE_FILL_AREA(#31);
#30=SURFACE_STYLE_FILL_AREA(#32);
#31=FILL_AREA_STYLE('',(#33));
#32=FILL_AREA_STYLE('',(#34));
#33=FILL_AREA_STYLE_COLOUR('',#164);
#34=FILL_AREA_STYLE_COLOUR('',#164);
#35=MANIFOLD_SOLID_BREP('NOCUT',#37);
#36=MANIFOLD_SOLID_BREP('NOCUT',#38);
#37=CLOSED_SHELL('',(#60,#61,#62,#63,#64,#65,#66));
#38=CLOSED_SHELL('',(#67,#68,#69,#70));
#39=TOROIDAL_SURFACE('',#187,16.800169,13.300169163545);
#40=CYLINDRICAL_SURFACE('',#181,3.375);
#41=CYLINDRICAL_SURFACE('',#185,3.5);
#42=CYLINDRICAL_SURFACE('',#194,4.99999991827819);
#43=CONICAL_SURFACE('',#179,3.21132400000005,30.000100464611);
#44=CONICAL_SURFACE('',#183,3.375,60.0000729559643);
#45=CONICAL_SURFACE('',#192,5.,45.0000000000003);
#46=FACE_BOUND('',#80,.T.);
#47=FACE_BOUND('',#81,.T.);
#48=FACE_BOUND('',#82,.T.);
#49=FACE_BOUND('',#83,.T.);
#50=FACE_BOUND('',#84,.T.);
#51=FACE_BOUND('',#85,.T.);
#52=FACE_BOUND('',#86,.T.);
#53=FACE_BOUND('',#87,.T.);
#54=FACE_BOUND('',#88,.T.);
#55=FACE_BOUND('',#89,.T.);
#56=FACE_BOUND('',#92,.T.);
#57=FACE_BOUND('',#93,.T.);
#58=FACE_BOUND('',#94,.T.);
#59=FACE_BOUND('',#95,.T.);
#60=ADVANCED_FACE('',(#75),#71,.T.);
#61=ADVANCED_FACE('',(#46,#47),#43,.T.);
#62=ADVANCED_FACE('',(#48,#49),#40,.T.);
#63=ADVANCED_FACE('',(#50,#51),#44,.T.);
#64=ADVANCED_FACE('',(#52,#53),#41,.T.);
#65=ADVANCED_FACE('',(#54,#55),#39,.F.);
#66=ADVANCED_FACE('',(#76),#72,.T.);
#67=ADVANCED_FACE('',(#77),#73,.T.);
#68=ADVANCED_FACE('',(#56,#57),#45,.T.);
#69=ADVANCED_FACE('',(#58,#59),#42,.T.);
#70=ADVANCED_FACE('',(#78),#74,.F.);
#71=PLANE('',#177);
#72=PLANE('',#188);
#73=PLANE('',#190);
#74=PLANE('',#195);
#75=FACE_OUTER_BOUND('',#79,.T.);
#76=FACE_OUTER_BOUND('',#90,.T.);
#77=FACE_OUTER_BOUND('',#91,.T.);
#78=FACE_OUTER_BOUND('',#96,.T.);
#79=EDGE_LOOP('',(#97));
#80=EDGE_LOOP('',(#98));
#81=EDGE_LOOP('',(#99));
#82=EDGE_LOOP('',(#100));
#83=EDGE_LOOP('',(#101));
#84=EDGE_LOOP('',(#102));
#85=EDGE_LOOP('',(#103));
#86=EDGE_LOOP('',(#104));
#87=EDGE_LOOP('',(#105));
#88=EDGE_LOOP('',(#106));
#89=EDGE_LOOP('',(#107));
#90=EDGE_LOOP('',(#108));
#91=EDGE_LOOP('',(#109));
#92=EDGE_LOOP('',(#110));
#93=EDGE_LOOP('',(#111));
#94=EDGE_LOOP('',(#112));
#95=EDGE_LOOP('',(#113));
#96=EDGE_LOOP('',(#114));
#97=ORIENTED_EDGE('',*,*,#124,.T.);
#98=ORIENTED_EDGE('',*,*,#125,.T.);
#99=ORIENTED_EDGE('',*,*,#124,.F.);
#100=ORIENTED_EDGE('',*,*,#126,.T.);
#101=ORIENTED_EDGE('',*,*,#125,.F.);
#102=ORIENTED_EDGE('',*,*,#127,.T.);
#103=ORIENTED_EDGE('',*,*,#126,.F.);
#104=ORIENTED_EDGE('',*,*,#128,.T.);
#105=ORIENTED_EDGE('',*,*,#127,.F.);
#106=ORIENTED_EDGE('',*,*,#129,.T.);
#107=ORIENTED_EDGE('',*,*,#128,.F.);
#108=ORIENTED_EDGE('',*,*,#129,.F.);
#109=ORIENTED_EDGE('',*,*,#130,.F.);
#110=ORIENTED_EDGE('',*,*,#130,.T.);
#111=ORIENTED_EDGE('',*,*,#131,.F.);
#112=ORIENTED_EDGE('',*,*,#131,.T.);
#113=ORIENTED_EDGE('',*,*,#132,.F.);
#114=ORIENTED_EDGE('',*,*,#132,.T.);
#115=VERTEX_POINT('',#255);
#116=VERTEX_POINT('',#258);
#117=VERTEX_POINT('',#261);
#118=VERTEX_POINT('',#264);
#119=VERTEX_POINT('',#267);
#120=VERTEX_POINT('',#270);
#121=VERTEX_POINT('',#274);
#122=VERTEX_POINT('',#277);
#123=VERTEX_POINT('',#280);
#124=EDGE_CURVE('',#115,#115,#133,.T.);
#125=EDGE_CURVE('',#116,#116,#134,.T.);
#126=EDGE_CURVE('',#117,#117,#135,.T.);
#127=EDGE_CURVE('',#118,#118,#136,.T.);
#128=EDGE_CURVE('',#119,#119,#137,.T.);
#129=EDGE_CURVE('',#120,#120,#138,.T.);
#130=EDGE_CURVE('',#121,#121,#139,.T.);
#131=EDGE_CURVE('',#122,#122,#140,.T.);
#132=EDGE_CURVE('',#123,#123,#141,.T.);
#133=CIRCLE('',#176,3.21132400000005);
#134=CIRCLE('',#178,3.375);
#135=CIRCLE('',#180,3.375);
#136=CIRCLE('',#182,3.5);
#137=CIRCLE('',#184,3.5);
#138=CIRCLE('',#186,4.99999991827819);
#139=CIRCLE('',#189,3.965);
#140=CIRCLE('',#191,5.);
#141=CIRCLE('',#193,4.99999991827819);
#142=PRESENTATION_LAYER_ASSIGNMENT('1','Layer 1',(#171,#172,#173,#174,#175,
#36));
#143=PRESENTATION_LAYER_ASSIGNMENT('2','Layer 2',(#35));
#144=STYLED_ITEM('',(#151),#171);
#145=STYLED_ITEM('',(#152),#172);
#146=STYLED_ITEM('',(#153),#173);
#147=STYLED_ITEM('',(#154),#174);
#148=STYLED_ITEM('',(#155),#175);
#149=STYLED_ITEM('',(#156),#35);
#150=STYLED_ITEM('',(#157),#36);
#151=PRESENTATION_STYLE_ASSIGNMENT((#158));
#152=PRESENTATION_STYLE_ASSIGNMENT((#159));
#153=PRESENTATION_STYLE_ASSIGNMENT((#160));
#154=PRESENTATION_STYLE_ASSIGNMENT((#161));
#155=PRESENTATION_STYLE_ASSIGNMENT((#162));
#156=PRESENTATION_STYLE_ASSIGNMENT((#25));
#157=PRESENTATION_STYLE_ASSIGNMENT((#26));
#158=CURVE_STYLE('',#165,POSITIVE_LENGTH_MEASURE(0.13),#163);
#159=CURVE_STYLE('',#166,POSITIVE_LENGTH_MEASURE(0.13),#163);
#160=CURVE_STYLE('',#167,POSITIVE_LENGTH_MEASURE(0.18),#163);
#161=CURVE_STYLE('',#168,POSITIVE_LENGTH_MEASURE(0.18),#163);
#162=CURVE_STYLE('',#169,POSITIVE_LENGTH_MEASURE(0.18),#163);
#163=COLOUR_RGB('Strong Stone',0.576470588235294,0.54508278019379,0.392156862745098);
#164=COLOUR_RGB('Medium Gray',0.490196078431373,0.490196078431373,0.490196078431373);
#165=DRAUGHTING_PRE_DEFINED_CURVE_FONT('continuous');
#166=DRAUGHTING_PRE_DEFINED_CURVE_FONT('continuous');
#167=DRAUGHTING_PRE_DEFINED_CURVE_FONT('continuous');
#168=DRAUGHTING_PRE_DEFINED_CURVE_FONT('continuous');
#169=DRAUGHTING_PRE_DEFINED_CURVE_FONT('continuous');
#170=AXIS2_PLACEMENT_3D('',#248,#196,#197);
#171=AXIS2_PLACEMENT_3D('',#249,#198,#199);
#172=AXIS2_PLACEMENT_3D('',#250,#200,#201);
#173=AXIS2_PLACEMENT_3D('MCS',#251,#202,#203);
#174=AXIS2_PLACEMENT_3D('PCS',#252,#204,#205);
#175=AXIS2_PLACEMENT_3D('CIP',#253,#206,#207);
#176=AXIS2_PLACEMENT_3D('',#254,#208,#209);
#177=AXIS2_PLACEMENT_3D('',#256,#210,#211);
#178=AXIS2_PLACEMENT_3D('',#257,#212,#213);
#179=AXIS2_PLACEMENT_3D('',#259,#214,#215);
#180=AXIS2_PLACEMENT_3D('',#260,#216,#217);
#181=AXIS2_PLACEMENT_3D('',#262,#218,#219);
#182=AXIS2_PLACEMENT_3D('',#263,#220,#221);
#183=AXIS2_PLACEMENT_3D('',#265,#222,#223);
#184=AXIS2_PLACEMENT_3D('',#266,#224,#225);
#185=AXIS2_PLACEMENT_3D('',#268,#226,#227);
#186=AXIS2_PLACEMENT_3D('',#269,#228,#229);
#187=AXIS2_PLACEMENT_3D('',#271,#230,#231);
#188=AXIS2_PLACEMENT_3D('',#272,#232,#233);
#189=AXIS2_PLACEMENT_3D('',#273,#234,#235);
#190=AXIS2_PLACEMENT_3D('',#275,#236,#237);
#191=AXIS2_PLACEMENT_3D('',#276,#238,#239);
#192=AXIS2_PLACEMENT_3D('',#278,#240,#241);
#193=AXIS2_PLACEMENT_3D('',#279,#242,#243);
#194=AXIS2_PLACEMENT_3D('',#281,#244,#245);
#195=AXIS2_PLACEMENT_3D('',#282,#246,#247);
#196=DIRECTION('',(0.,0.,1.));
#197=DIRECTION('',(1.,0.,0.));
#198=DIRECTION('',(0.,0.,1.));
#199=DIRECTION('',(1.,0.,0.));
#200=DIRECTION('',(0.,0.,1.));
#201=DIRECTION('',(1.,0.,0.));
#202=DIRECTION('',(0.,0.,1.));
#203=DIRECTION('',(1.,0.,0.));
#204=DIRECTION('',(0.,0.,1.));
#205=DIRECTION('',(1.,0.,0.));
#206=DIRECTION('',(0.,0.,1.));
#207=DIRECTION('',(1.,0.,0.));
#208=DIRECTION('',(0.,0.,-1.));
#209=DIRECTION('',(-1.,0.,0.));
#210=DIRECTION('',(0.,0.,-1.));
#211=DIRECTION('',(1.,0.,0.));
#212=DIRECTION('',(0.,0.,-1.));
#213=DIRECTION('',(-1.,0.,0.));
#214=DIRECTION('',(0.,0.,1.));
#215=DIRECTION('',(-1.,0.,-5.97599465974806E-17));
#216=DIRECTION('',(0.,0.,-1.));
#217=DIRECTION('',(-1.,0.,0.));
#218=DIRECTION('',(0.,0.,-1.));
#219=DIRECTION('',(1.,0.,0.));
#220=DIRECTION('',(0.,0.,-1.));
#221=DIRECTION('',(-1.,0.,0.));
#222=DIRECTION('',(0.,0.,1.));
#223=DIRECTION('',(-1.,0.,-2.79885861794194E-17));
#224=DIRECTION('',(0.,0.,-1.));
#225=DIRECTION('',(-1.,0.,0.));
#226=DIRECTION('',(0.,0.,-1.));
#227=DIRECTION('',(1.,0.,0.));
#228=DIRECTION('',(0.,0.,-1.));
#229=DIRECTION('',(1.,0.,0.));
#230=DIRECTION('',(0.,0.,-1.));
#231=DIRECTION('',(1.,0.,0.));
#232=DIRECTION('',(0.,0.,1.));
#233=DIRECTION('',(-1.,0.,0.));
#234=DIRECTION('',(0.,0.,-1.));
#235=DIRECTION('',(-1.,0.,0.));
#236=DIRECTION('',(0.,0.,1.));
#237=DIRECTION('',(-1.,0.,0.));
#238=DIRECTION('',(0.,0.,-1.));
#239=DIRECTION('',(-1.,0.,0.));
#240=DIRECTION('',(0.,0.,-1.));
#241=DIRECTION('',(1.,0.,2.07131161310661E-17));
#242=DIRECTION('',(0.,0.,-1.));
#243=DIRECTION('',(1.,0.,0.));
#244=DIRECTION('',(0.,0.,-1.));
#245=DIRECTION('',(1.,0.,0.));
#246=DIRECTION('',(0.,0.,1.));
#247=DIRECTION('',(-1.,0.,0.));
#248=CARTESIAN_POINT('',(0.,0.,0.));
#249=CARTESIAN_POINT('',(0.,0.,0.));
#250=CARTESIAN_POINT('',(0.,0.,0.));
#251=CARTESIAN_POINT('',(0.,0.,0.));
#252=CARTESIAN_POINT('',(0.,0.,40.));
#253=CARTESIAN_POINT('',(0.,0.,-38.));
#254=CARTESIAN_POINT('',(0.,0.,-38.));
#255=CARTESIAN_POINT('',(-3.21132400000005,0.,-38.));
#256=CARTESIAN_POINT('',(0.,-4.44089209850063E-16,-38.));
#257=CARTESIAN_POINT('',(0.,0.,-37.716506));
#258=CARTESIAN_POINT('',(-3.375,0.,-37.716506));
#259=CARTESIAN_POINT('',(0.,0.,-38.));
#260=CARTESIAN_POINT('',(0.,0.,-16.9013095714285));
#261=CARTESIAN_POINT('',(-3.375,0.,-16.9013095714285));
#262=CARTESIAN_POINT('',(0.,0.,0.));
#263=CARTESIAN_POINT('',(0.,0.,-16.829141));
#264=CARTESIAN_POINT('',(-3.5,0.,-16.829141));
#265=CARTESIAN_POINT('',(0.,0.,-16.9013095714285));
#266=CARTESIAN_POINT('',(0.,0.,-6.13600100000002));
#267=CARTESIAN_POINT('',(-3.5,0.,-6.13600100000002));
#268=CARTESIAN_POINT('',(0.,0.,0.));
#269=CARTESIAN_POINT('',(0.,0.,0.));
#270=CARTESIAN_POINT('',(4.99999991827819,0.,0.));
#271=CARTESIAN_POINT('',(0.,0.,-6.13600100000002));
#272=CARTESIAN_POINT('',(0.,0.,0.));
#273=CARTESIAN_POINT('',(0.,0.,40.));
#274=CARTESIAN_POINT('',(-3.965,0.,40.));
#275=CARTESIAN_POINT('',(0.,3.965,40.));
#276=CARTESIAN_POINT('',(0.,0.,38.965));
#277=CARTESIAN_POINT('',(-5.,0.,38.965));
#278=CARTESIAN_POINT('',(0.,0.,38.965));
#279=CARTESIAN_POINT('',(0.,0.,0.));
#280=CARTESIAN_POINT('',(4.99999991827819,0.,0.));
#281=CARTESIAN_POINT('',(0.,0.,0.));
#282=CARTESIAN_POINT('',(0.,0.,0.));
#283=MECHANICAL_DESIGN_GEOMETRIC_PRESENTATION_REPRESENTATION('',(#144,#145,
#146,#147,#148,#149,#150),#284);
#284=(
GEOMETRIC_REPRESENTATION_CONTEXT(3)
GLOBAL_UNCERTAINTY_ASSIGNED_CONTEXT((#285))
GLOBAL_UNIT_ASSIGNED_CONTEXT((#291,#287,#286))
REPRESENTATION_CONTEXT('PMX05B-04100-10N1','TOP_LEVEL_ASSEMBLY_PART')
);
#285=UNCERTAINTY_MEASURE_WITH_UNIT(LENGTH_MEASURE(2.E-5),#291,
'DISTANCE_ACCURACY_VALUE','Maximum Tolerance applied to model');
#286=(
NAMED_UNIT(*)
SI_UNIT($,.STERADIAN.)
SOLID_ANGLE_UNIT()
);
#287=(
CONVERSION_BASED_UNIT('DEGREE',#289)
NAMED_UNIT(#288)
PLANE_ANGLE_UNIT()
);
#288=DIMENSIONAL_EXPONENTS(0.,0.,0.,0.,0.,0.,0.);
#289=PLANE_ANGLE_MEASURE_WITH_UNIT(PLANE_ANGLE_MEASURE(0.0174532925),#290);
#290=(
NAMED_UNIT(*)
PLANE_ANGLE_UNIT()
SI_UNIT($,.RADIAN.)
);
#291=(
LENGTH_UNIT()
NAMED_UNIT(*)
SI_UNIT(.MILLI.,.METRE.)
);
ENDSEC;
END-ISO-10303-21;
