ISO-10303-21;
HEADER;
/* Generated by software containing ST-Developer
 * from STEP Tools, Inc. (www.steptools.com) 
 */
/* OPTION: using custom schema-name function */

FILE_DESCRIPTION(
/* description */ (''),
/* implementation_level */ '2;1');

FILE_NAME(
/* name */ 'PMX05B-02800-10N1.stp',
/* time_stamp */ '2018-07-12T16:31:58+05:00',
/* author */ (''),
/* organization */ (''),
/* preprocessor_version */ 'ST-DEVELOPER v16',
/* originating_system */ 'SIEMENS PLM Software NX 11.0',
/* authorisation */ '');

FILE_SCHEMA (('AUTOMOTIVE_DESIGN { 1 0 10303 214 3 1 1 1 }'));
ENDSEC;

DATA;
#10=CONSTRUCTIVE_GEOMETRY_REPRESENTATION_RELATIONSHIP(
'supplemental geometry','',#24,#11);
#11=CONSTRUCTIVE_GEOMETRY_REPRESENTATION('supplemental geometry',(#182,
#183,#184,#185,#186),#304);
#12=SHAPE_REPRESENTATION_RELATIONSHIP('None',
'relationship between PMX05B-02800-10N1-None and PMX05B-02800-10N1-Non
e',#24,#13);
#13=ADVANCED_BREP_SHAPE_REPRESENTATION('PMX05B-02800-10N1-None',(#35,#36),
#304);
#14=SHAPE_DEFINITION_REPRESENTATION(#15,#24);
#15=PRODUCT_DEFINITION_SHAPE('','',#16);
#16=PRODUCT_DEFINITION(' ','',#18,#17);
#17=PRODUCT_DEFINITION_CONTEXT('part definition',#23,'design');
#18=PRODUCT_DEFINITION_FORMATION_WITH_SPECIFIED_SOURCE(' ',' ',#20,
 .NOT_KNOWN.);
#19=PRODUCT_RELATED_PRODUCT_CATEGORY('part','',(#20));
#20=PRODUCT('PMX05B-02800-10N1','PMX05B-02800-10N1',' ',(#21));
#21=PRODUCT_CONTEXT(' ',#23,'mechanical');
#22=APPLICATION_PROTOCOL_DEFINITION('international standard',
'automotive_design',2010,#23);
#23=APPLICATION_CONTEXT(
'core data for automotive mechanical design processes');
#24=SHAPE_REPRESENTATION('PMX05B-02800-10N1-None',(#181),#304);
#25=SURFACE_STYLE_USAGE(.BOTH.,#27);
#26=SURFACE_STYLE_USAGE(.BOTH.,#28);
#27=SURFACE_SIDE_STYLE('',(#29));
#28=SURFACE_SIDE_STYLE('',(#30));
#29=SURFACE_STYLE_FILL_AREA(#31);
#30=SURFACE_STYLE_FILL_AREA(#32);
#31=FILL_AREA_STYLE('',(#33));
#32=FILL_AREA_STYLE('',(#34));
#33=FILL_AREA_STYLE_COLOUR('',#175);
#34=FILL_AREA_STYLE_COLOUR('',#175);
#35=MANIFOLD_SOLID_BREP('NOCUT',#37);
#36=MANIFOLD_SOLID_BREP('NOCUT',#38);
#37=CLOSED_SHELL('',(#63,#64,#65,#66,#67,#68,#69,#70));
#38=CLOSED_SHELL('',(#71,#72,#73,#74));
#39=TOROIDAL_SURFACE('',#198,4.5,1.);
#40=CYLINDRICAL_SURFACE('',#192,3.37501600000004);
#41=CYLINDRICAL_SURFACE('',#196,3.5);
#42=CYLINDRICAL_SURFACE('',#207,5.);
#43=CONICAL_SURFACE('',#190,3.21131900000004,30.0020582853576);
#44=CONICAL_SURFACE('',#194,3.37501600000004,59.9962653785667);
#45=CONICAL_SURFACE('',#200,3.83627339512387,48.4152864706805);
#46=CONICAL_SURFACE('',#205,5.,44.9995571323604);
#47=FACE_BOUND('',#84,.T.);
#48=FACE_BOUND('',#85,.T.);
#49=FACE_BOUND('',#86,.T.);
#50=FACE_BOUND('',#87,.T.);
#51=FACE_BOUND('',#88,.T.);
#52=FACE_BOUND('',#89,.T.);
#53=FACE_BOUND('',#90,.T.);
#54=FACE_BOUND('',#91,.T.);
#55=FACE_BOUND('',#92,.T.);
#56=FACE_BOUND('',#93,.T.);
#57=FACE_BOUND('',#94,.T.);
#58=FACE_BOUND('',#95,.T.);
#59=FACE_BOUND('',#98,.T.);
#60=FACE_BOUND('',#99,.T.);
#61=FACE_BOUND('',#100,.T.);
#62=FACE_BOUND('',#101,.T.);
#63=ADVANCED_FACE('',(#79),#75,.F.);
#64=ADVANCED_FACE('',(#47,#48),#43,.T.);
#65=ADVANCED_FACE('',(#49,#50),#40,.T.);
#66=ADVANCED_FACE('',(#51,#52),#44,.T.);
#67=ADVANCED_FACE('',(#53,#54),#41,.T.);
#68=ADVANCED_FACE('',(#55,#56),#39,.F.);
#69=ADVANCED_FACE('',(#57,#58),#45,.T.);
#70=ADVANCED_FACE('',(#80),#76,.T.);
#71=ADVANCED_FACE('',(#81),#77,.F.);
#72=ADVANCED_FACE('',(#59,#60),#46,.T.);
#73=ADVANCED_FACE('',(#61,#62),#42,.T.);
#74=ADVANCED_FACE('',(#82),#78,.F.);
#75=PLANE('',#188);
#76=PLANE('',#201);
#77=PLANE('',#203);
#78=PLANE('',#208);
#79=FACE_OUTER_BOUND('',#83,.T.);
#80=FACE_OUTER_BOUND('',#96,.T.);
#81=FACE_OUTER_BOUND('',#97,.T.);
#82=FACE_OUTER_BOUND('',#102,.T.);
#83=EDGE_LOOP('',(#103));
#84=EDGE_LOOP('',(#104));
#85=EDGE_LOOP('',(#105));
#86=EDGE_LOOP('',(#106));
#87=EDGE_LOOP('',(#107));
#88=EDGE_LOOP('',(#108));
#89=EDGE_LOOP('',(#109));
#90=EDGE_LOOP('',(#110));
#91=EDGE_LOOP('',(#111));
#92=EDGE_LOOP('',(#112));
#93=EDGE_LOOP('',(#113));
#94=EDGE_LOOP('',(#114));
#95=EDGE_LOOP('',(#115));
#96=EDGE_LOOP('',(#116));
#97=EDGE_LOOP('',(#117));
#98=EDGE_LOOP('',(#118));
#99=EDGE_LOOP('',(#119));
#100=EDGE_LOOP('',(#120));
#101=EDGE_LOOP('',(#121));
#102=EDGE_LOOP('',(#122));
#103=ORIENTED_EDGE('',*,*,#133,.F.);
#104=ORIENTED_EDGE('',*,*,#134,.F.);
#105=ORIENTED_EDGE('',*,*,#133,.T.);
#106=ORIENTED_EDGE('',*,*,#135,.F.);
#107=ORIENTED_EDGE('',*,*,#134,.T.);
#108=ORIENTED_EDGE('',*,*,#136,.F.);
#109=ORIENTED_EDGE('',*,*,#135,.T.);
#110=ORIENTED_EDGE('',*,*,#137,.F.);
#111=ORIENTED_EDGE('',*,*,#136,.T.);
#112=ORIENTED_EDGE('',*,*,#138,.F.);
#113=ORIENTED_EDGE('',*,*,#137,.T.);
#114=ORIENTED_EDGE('',*,*,#139,.F.);
#115=ORIENTED_EDGE('',*,*,#138,.T.);
#116=ORIENTED_EDGE('',*,*,#139,.T.);
#117=ORIENTED_EDGE('',*,*,#140,.T.);
#118=ORIENTED_EDGE('',*,*,#140,.F.);
#119=ORIENTED_EDGE('',*,*,#141,.T.);
#120=ORIENTED_EDGE('',*,*,#141,.F.);
#121=ORIENTED_EDGE('',*,*,#142,.T.);
#122=ORIENTED_EDGE('',*,*,#142,.F.);
#123=VERTEX_POINT('',#272);
#124=VERTEX_POINT('',#275);
#125=VERTEX_POINT('',#278);
#126=VERTEX_POINT('',#281);
#127=VERTEX_POINT('',#284);
#128=VERTEX_POINT('',#287);
#129=VERTEX_POINT('',#290);
#130=VERTEX_POINT('',#294);
#131=VERTEX_POINT('',#297);
#132=VERTEX_POINT('',#300);
#133=EDGE_CURVE('',#123,#123,#143,.T.);
#134=EDGE_CURVE('',#124,#124,#144,.T.);
#135=EDGE_CURVE('',#125,#125,#145,.T.);
#136=EDGE_CURVE('',#126,#126,#146,.T.);
#137=EDGE_CURVE('',#127,#127,#147,.T.);
#138=EDGE_CURVE('',#128,#128,#148,.T.);
#139=EDGE_CURVE('',#129,#129,#149,.T.);
#140=EDGE_CURVE('',#130,#130,#150,.T.);
#141=EDGE_CURVE('',#131,#131,#151,.T.);
#142=EDGE_CURVE('',#132,#132,#152,.T.);
#143=CIRCLE('',#187,3.21131900000004);
#144=CIRCLE('',#189,3.37501600000004);
#145=CIRCLE('',#191,3.37501600000004);
#146=CIRCLE('',#193,3.5);
#147=CIRCLE('',#195,3.5);
#148=CIRCLE('',#197,3.83627339512387);
#149=CIRCLE('',#199,5.);
#150=CIRCLE('',#202,3.965012);
#151=CIRCLE('',#204,5.);
#152=CIRCLE('',#206,5.);
#153=PRESENTATION_LAYER_ASSIGNMENT('1','Layer 1',(#182,#183,#184,#185,#186,
#36));
#154=PRESENTATION_LAYER_ASSIGNMENT('2','Layer 2',(#35));
#155=STYLED_ITEM('',(#162),#182);
#156=STYLED_ITEM('',(#163),#183);
#157=STYLED_ITEM('',(#164),#184);
#158=STYLED_ITEM('',(#165),#185);
#159=STYLED_ITEM('',(#166),#186);
#160=STYLED_ITEM('',(#167),#35);
#161=STYLED_ITEM('',(#168),#36);
#162=PRESENTATION_STYLE_ASSIGNMENT((#169));
#163=PRESENTATION_STYLE_ASSIGNMENT((#170));
#164=PRESENTATION_STYLE_ASSIGNMENT((#171));
#165=PRESENTATION_STYLE_ASSIGNMENT((#172));
#166=PRESENTATION_STYLE_ASSIGNMENT((#173));
#167=PRESENTATION_STYLE_ASSIGNMENT((#25));
#168=PRESENTATION_STYLE_ASSIGNMENT((#26));
#169=CURVE_STYLE('',#176,POSITIVE_LENGTH_MEASURE(0.13),#174);
#170=CURVE_STYLE('',#177,POSITIVE_LENGTH_MEASURE(0.13),#174);
#171=CURVE_STYLE('',#178,POSITIVE_LENGTH_MEASURE(0.18),#174);
#172=CURVE_STYLE('',#179,POSITIVE_LENGTH_MEASURE(0.18),#174);
#173=CURVE_STYLE('',#180,POSITIVE_LENGTH_MEASURE(0.18),#174);
#174=COLOUR_RGB('Strong Stone',0.576470588235294,0.54508278019379,0.392156862745098);
#175=COLOUR_RGB('Medium Gray',0.490196078431373,0.490196078431373,0.490196078431373);
#176=DRAUGHTING_PRE_DEFINED_CURVE_FONT('continuous');
#177=DRAUGHTING_PRE_DEFINED_CURVE_FONT('continuous');
#178=DRAUGHTING_PRE_DEFINED_CURVE_FONT('continuous');
#179=DRAUGHTING_PRE_DEFINED_CURVE_FONT('continuous');
#180=DRAUGHTING_PRE_DEFINED_CURVE_FONT('continuous');
#181=AXIS2_PLACEMENT_3D('',#265,#209,#210);
#182=AXIS2_PLACEMENT_3D('',#266,#211,#212);
#183=AXIS2_PLACEMENT_3D('',#267,#213,#214);
#184=AXIS2_PLACEMENT_3D('MCS',#268,#215,#216);
#185=AXIS2_PLACEMENT_3D('PCS',#269,#217,#218);
#186=AXIS2_PLACEMENT_3D('CIP',#270,#219,#220);
#187=AXIS2_PLACEMENT_3D('',#271,#221,#222);
#188=AXIS2_PLACEMENT_3D('',#273,#223,#224);
#189=AXIS2_PLACEMENT_3D('',#274,#225,#226);
#190=AXIS2_PLACEMENT_3D('',#276,#227,#228);
#191=AXIS2_PLACEMENT_3D('',#277,#229,#230);
#192=AXIS2_PLACEMENT_3D('',#279,#231,#232);
#193=AXIS2_PLACEMENT_3D('',#280,#233,#234);
#194=AXIS2_PLACEMENT_3D('',#282,#235,#236);
#195=AXIS2_PLACEMENT_3D('',#283,#237,#238);
#196=AXIS2_PLACEMENT_3D('',#285,#239,#240);
#197=AXIS2_PLACEMENT_3D('',#286,#241,#242);
#198=AXIS2_PLACEMENT_3D('',#288,#243,#244);
#199=AXIS2_PLACEMENT_3D('',#289,#245,#246);
#200=AXIS2_PLACEMENT_3D('',#291,#247,#248);
#201=AXIS2_PLACEMENT_3D('',#292,#249,#250);
#202=AXIS2_PLACEMENT_3D('',#293,#251,#252);
#203=AXIS2_PLACEMENT_3D('',#295,#253,#254);
#204=AXIS2_PLACEMENT_3D('',#296,#255,#256);
#205=AXIS2_PLACEMENT_3D('',#298,#257,#258);
#206=AXIS2_PLACEMENT_3D('',#299,#259,#260);
#207=AXIS2_PLACEMENT_3D('',#301,#261,#262);
#208=AXIS2_PLACEMENT_3D('',#302,#263,#264);
#209=DIRECTION('',(0.,0.,1.));
#210=DIRECTION('',(1.,0.,0.));
#211=DIRECTION('',(0.,0.,1.));
#212=DIRECTION('',(1.,0.,0.));
#213=DIRECTION('',(0.,0.,1.));
#214=DIRECTION('',(1.,0.,0.));
#215=DIRECTION('',(0.,0.,1.));
#216=DIRECTION('',(1.,0.,0.));
#217=DIRECTION('',(0.,0.,1.));
#218=DIRECTION('',(1.,0.,0.));
#219=DIRECTION('',(0.,0.,1.));
#220=DIRECTION('',(1.,0.,0.));
#221=DIRECTION('',(0.,0.,1.));
#222=DIRECTION('',(1.,0.,0.));
#223=DIRECTION('',(0.,0.,1.));
#224=DIRECTION('',(-1.,0.,0.));
#225=DIRECTION('',(0.,0.,1.));
#226=DIRECTION('',(1.,0.,0.));
#227=DIRECTION('',(0.,0.,1.));
#228=DIRECTION('',(-1.,0.,-3.58531545801583E-17));
#229=DIRECTION('',(0.,0.,1.));
#230=DIRECTION('',(1.,0.,0.));
#231=DIRECTION('',(0.,0.,1.));
#232=DIRECTION('',(-1.,0.,0.));
#233=DIRECTION('',(0.,0.,1.));
#234=DIRECTION('',(1.,0.,0.));
#235=DIRECTION('',(0.,0.,1.));
#236=DIRECTION('',(-1.,0.,-3.06172050243531E-17));
#237=DIRECTION('',(0.,0.,1.));
#238=DIRECTION('',(1.,0.,0.));
#239=DIRECTION('',(0.,0.,1.));
#240=DIRECTION('',(-1.,0.,0.));
#241=DIRECTION('',(0.,0.,1.));
#242=DIRECTION('',(1.,0.,0.));
#243=DIRECTION('',(0.,0.,1.));
#244=DIRECTION('',(-1.,0.,0.));
#245=DIRECTION('',(0.,0.,1.));
#246=DIRECTION('',(1.,0.,0.));
#247=DIRECTION('',(0.,0.,1.));
#248=DIRECTION('',(-1.,0.,2.9339848865541E-17));
#249=DIRECTION('',(0.,0.,1.));
#250=DIRECTION('',(-1.,0.,0.));
#251=DIRECTION('',(0.,0.,1.));
#252=DIRECTION('',(1.,0.,0.));
#253=DIRECTION('',(0.,0.,-1.));
#254=DIRECTION('',(1.,0.,0.));
#255=DIRECTION('',(0.,0.,1.));
#256=DIRECTION('',(1.,0.,0.));
#257=DIRECTION('',(0.,0.,-1.));
#258=DIRECTION('',(1.,0.,2.76179129925979E-17));
#259=DIRECTION('',(0.,0.,1.));
#260=DIRECTION('',(1.,0.,0.));
#261=DIRECTION('',(0.,0.,1.));
#262=DIRECTION('',(-1.,0.,0.));
#263=DIRECTION('',(0.,0.,1.));
#264=DIRECTION('',(-1.,0.,0.));
#265=CARTESIAN_POINT('',(0.,0.,0.));
#266=CARTESIAN_POINT('',(0.,0.,0.));
#267=CARTESIAN_POINT('',(0.,0.,0.));
#268=CARTESIAN_POINT('',(0.,0.,0.));
#269=CARTESIAN_POINT('',(0.,0.,40.));
#270=CARTESIAN_POINT('',(0.,0.,-23.));
#271=CARTESIAN_POINT('',(0.,0.,-23.));
#272=CARTESIAN_POINT('',(3.21131900000004,0.,-23.));
#273=CARTESIAN_POINT('',(0.,4.44089209850063E-16,-23.));
#274=CARTESIAN_POINT('',(0.,0.,-22.716492));
#275=CARTESIAN_POINT('',(3.37501600000004,0.,-22.716492));
#276=CARTESIAN_POINT('',(0.,0.,-23.));
#277=CARTESIAN_POINT('',(0.,0.,-1.90130240863601));
#278=CARTESIAN_POINT('',(3.37501600000004,0.,-1.90130240863601));
#279=CARTESIAN_POINT('',(0.,0.,0.));
#280=CARTESIAN_POINT('',(0.,0.,-1.82913199999999));
#281=CARTESIAN_POINT('',(3.5,0.,-1.82913199999999));
#282=CARTESIAN_POINT('',(0.,0.,-1.90130240863601));
#283=CARTESIAN_POINT('',(0.,0.,-1.78062499999999));
#284=CARTESIAN_POINT('',(3.5,0.,-1.78062499999999));
#285=CARTESIAN_POINT('',(0.,0.,0.));
#286=CARTESIAN_POINT('',(0.,0.,-1.03264973705367));
#287=CARTESIAN_POINT('',(3.83627339512387,0.,-1.03264973705367));
#288=CARTESIAN_POINT('',(0.,0.,-1.78062499999999));
#289=CARTESIAN_POINT('',(0.,0.,0.));
#290=CARTESIAN_POINT('',(5.,0.,0.));
#291=CARTESIAN_POINT('',(0.,0.,-1.03264973705367));
#292=CARTESIAN_POINT('',(0.,0.,0.));
#293=CARTESIAN_POINT('',(0.,0.,40.));
#294=CARTESIAN_POINT('',(3.965012,0.,40.));
#295=CARTESIAN_POINT('',(0.,3.965012,40.));
#296=CARTESIAN_POINT('',(0.,0.,38.964996));
#297=CARTESIAN_POINT('',(5.,0.,38.964996));
#298=CARTESIAN_POINT('',(0.,0.,38.964996));
#299=CARTESIAN_POINT('',(0.,0.,0.));
#300=CARTESIAN_POINT('',(5.,0.,0.));
#301=CARTESIAN_POINT('',(0.,0.,0.));
#302=CARTESIAN_POINT('',(0.,0.,0.));
#303=MECHANICAL_DESIGN_GEOMETRIC_PRESENTATION_REPRESENTATION('',(#155,#156,
#157,#158,#159,#160,#161),#304);
#304=(
GEOMETRIC_REPRESENTATION_CONTEXT(3)
GLOBAL_UNCERTAINTY_ASSIGNED_CONTEXT((#305))
GLOBAL_UNIT_ASSIGNED_CONTEXT((#311,#307,#306))
REPRESENTATION_CONTEXT('PMX05B-02800-10N1','TOP_LEVEL_ASSEMBLY_PART')
);
#305=UNCERTAINTY_MEASURE_WITH_UNIT(LENGTH_MEASURE(2.E-5),#311,
'DISTANCE_ACCURACY_VALUE','Maximum Tolerance applied to model');
#306=(
NAMED_UNIT(*)
SI_UNIT($,.STERADIAN.)
SOLID_ANGLE_UNIT()
);
#307=(
CONVERSION_BASED_UNIT('DEGREE',#309)
NAMED_UNIT(#308)
PLANE_ANGLE_UNIT()
);
#308=DIMENSIONAL_EXPONENTS(0.,0.,0.,0.,0.,0.,0.);
#309=PLANE_ANGLE_MEASURE_WITH_UNIT(PLANE_ANGLE_MEASURE(0.0174532925),#310);
#310=(
NAMED_UNIT(*)
PLANE_ANGLE_UNIT()
SI_UNIT($,.RADIAN.)
);
#311=(
LENGTH_UNIT()
NAMED_UNIT(*)
SI_UNIT(.MILLI.,.METRE.)
);
ENDSEC;
END-ISO-10303-21;
