ISO-10303-21;
HEADER;
/* Generated by software containing ST-Developer
 * from STEP Tools, Inc. (www.steptools.com) 
 */
/* OPTION: using custom schema-name function */

FILE_DESCRIPTION(
/* description */ (''),
/* implementation_level */ '2;1');

FILE_NAME(
/* name */ 'PMX05-04100-10N1.stp',
/* time_stamp */ '2018-07-12T16:31:58+05:00',
/* author */ (''),
/* organization */ (''),
/* preprocessor_version */ 'ST-DEVELOPER v16',
/* originating_system */ 'SIEMENS PLM Software NX 11.0',
/* authorisation */ '');

FILE_SCHEMA (('AUTOMOTIVE_DESIGN { 1 0 10303 214 3 1 1 1 }'));
ENDSEC;

DATA;
#10=CONSTRUCTIVE_GEOMETRY_REPRESENTATION_RELATIONSHIP(
'supplemental geometry','',#24,#11);
#11=CONSTRUCTIVE_GEOMETRY_REPRESENTATION('supplemental geometry',(#171,
#172,#173,#174,#175),#284);
#12=SHAPE_REPRESENTATION_RELATIONSHIP('None',
'relationship between PMX05-04100-10N1-None and PMX05-04100-10N1-None',
#24,#13);
#13=ADVANCED_BREP_SHAPE_REPRESENTATION('PMX05-04100-10N1-None',(#35,#36),
#284);
#14=SHAPE_DEFINITION_REPRESENTATION(#15,#24);
#15=PRODUCT_DEFINITION_SHAPE('','',#16);
#16=PRODUCT_DEFINITION(' ','',#18,#17);
#17=PRODUCT_DEFINITION_CONTEXT('part definition',#23,'design');
#18=PRODUCT_DEFINITION_FORMATION_WITH_SPECIFIED_SOURCE(' ',' ',#20,
 .NOT_KNOWN.);
#19=PRODUCT_RELATED_PRODUCT_CATEGORY('part','',(#20));
#20=PRODUCT('PMX05-04100-10N1','PMX05-04100-10N1',' ',(#21));
#21=PRODUCT_CONTEXT(' ',#23,'mechanical');
#22=APPLICATION_PROTOCOL_DEFINITION('international standard',
'automotive_design',2010,#23);
#23=APPLICATION_CONTEXT(
'core data for automotive mechanical design processes');
#24=SHAPE_REPRESENTATION('PMX05-04100-10N1-None',(#170),#284);
#25=SURFACE_STYLE_USAGE(.BOTH.,#27);
#26=SURFACE_STYLE_USAGE(.BOTH.,#28);
#27=SURFACE_SIDE_STYLE('',(#29));
#28=SURFACE_SIDE_STYLE('',(#30));
#29=SURFACE_STYLE_FILL_AREA(#31);
#30=SURFACE_STYLE_FILL_AREA(#32);
#31=FILL_AREA_STYLE('',(#33));
#32=FILL_AREA_STYLE('',(#34));
#33=FILL_AREA_STYLE_COLOUR('',#164);
#34=FILL_AREA_STYLE_COLOUR('',#164);
#35=MANIFOLD_SOLID_BREP('NOCUT',#37);
#36=MANIFOLD_SOLID_BREP('NOCUT',#38);
#37=CLOSED_SHELL('',(#53,#54,#55,#56,#57,#58,#59));
#38=CLOSED_SHELL('',(#60,#61,#62,#63));
#39=PLANE('',#187);
#40=PLANE('',#188);
#41=PLANE('',#190);
#42=PLANE('',#195);
#43=FACE_OUTER_BOUND('',#89,.T.);
#44=FACE_OUTER_BOUND('',#90,.T.);
#45=FACE_OUTER_BOUND('',#91,.T.);
#46=FACE_OUTER_BOUND('',#96,.T.);
#47=CONICAL_SURFACE('',#182,3.5,60.0024627123936);
#48=CONICAL_SURFACE('',#186,3.285492,31.9715962864546);
#49=CONICAL_SURFACE('',#192,3.96499600000001,45.0004151882121);
#50=CYLINDRICAL_SURFACE('',#180,3.50000100445556);
#51=CYLINDRICAL_SURFACE('',#184,3.37202400000001);
#52=CYLINDRICAL_SURFACE('',#194,5.);
#53=ADVANCED_FACE('',(#65,#66),#64,.F.);
#54=ADVANCED_FACE('',(#67,#68),#50,.T.);
#55=ADVANCED_FACE('',(#69,#70),#47,.T.);
#56=ADVANCED_FACE('',(#71,#72),#51,.T.);
#57=ADVANCED_FACE('',(#73,#74),#48,.T.);
#58=ADVANCED_FACE('',(#43),#39,.T.);
#59=ADVANCED_FACE('',(#44),#40,.T.);
#60=ADVANCED_FACE('',(#45),#41,.T.);
#61=ADVANCED_FACE('',(#75,#76),#49,.T.);
#62=ADVANCED_FACE('',(#77,#78),#52,.T.);
#63=ADVANCED_FACE('',(#46),#42,.F.);
#64=TOROIDAL_SURFACE('',#178,16.800171,13.3001689910889);
#65=FACE_BOUND('',#79,.T.);
#66=FACE_BOUND('',#80,.T.);
#67=FACE_BOUND('',#81,.T.);
#68=FACE_BOUND('',#82,.T.);
#69=FACE_BOUND('',#83,.T.);
#70=FACE_BOUND('',#84,.T.);
#71=FACE_BOUND('',#85,.T.);
#72=FACE_BOUND('',#86,.T.);
#73=FACE_BOUND('',#87,.T.);
#74=FACE_BOUND('',#88,.T.);
#75=FACE_BOUND('',#92,.T.);
#76=FACE_BOUND('',#93,.T.);
#77=FACE_BOUND('',#94,.T.);
#78=FACE_BOUND('',#95,.T.);
#79=EDGE_LOOP('',(#97));
#80=EDGE_LOOP('',(#98));
#81=EDGE_LOOP('',(#99));
#82=EDGE_LOOP('',(#100));
#83=EDGE_LOOP('',(#101));
#84=EDGE_LOOP('',(#102));
#85=EDGE_LOOP('',(#103));
#86=EDGE_LOOP('',(#104));
#87=EDGE_LOOP('',(#105));
#88=EDGE_LOOP('',(#106));
#89=EDGE_LOOP('',(#107));
#90=EDGE_LOOP('',(#108));
#91=EDGE_LOOP('',(#109));
#92=EDGE_LOOP('',(#110));
#93=EDGE_LOOP('',(#111));
#94=EDGE_LOOP('',(#112));
#95=EDGE_LOOP('',(#113));
#96=EDGE_LOOP('',(#114));
#97=ORIENTED_EDGE('',*,*,#124,.T.);
#98=ORIENTED_EDGE('',*,*,#125,.F.);
#99=ORIENTED_EDGE('',*,*,#126,.T.);
#100=ORIENTED_EDGE('',*,*,#124,.F.);
#101=ORIENTED_EDGE('',*,*,#127,.T.);
#102=ORIENTED_EDGE('',*,*,#126,.F.);
#103=ORIENTED_EDGE('',*,*,#127,.F.);
#104=ORIENTED_EDGE('',*,*,#128,.T.);
#105=ORIENTED_EDGE('',*,*,#129,.T.);
#106=ORIENTED_EDGE('',*,*,#128,.F.);
#107=ORIENTED_EDGE('',*,*,#129,.F.);
#108=ORIENTED_EDGE('',*,*,#125,.T.);
#109=ORIENTED_EDGE('',*,*,#130,.T.);
#110=ORIENTED_EDGE('',*,*,#131,.T.);
#111=ORIENTED_EDGE('',*,*,#130,.F.);
#112=ORIENTED_EDGE('',*,*,#132,.F.);
#113=ORIENTED_EDGE('',*,*,#131,.F.);
#114=ORIENTED_EDGE('',*,*,#132,.T.);
#115=VERTEX_POINT('',#255);
#116=VERTEX_POINT('',#257);
#117=VERTEX_POINT('',#260);
#118=VERTEX_POINT('',#263);
#119=VERTEX_POINT('',#266);
#120=VERTEX_POINT('',#269);
#121=VERTEX_POINT('',#274);
#122=VERTEX_POINT('',#277);
#123=VERTEX_POINT('',#280);
#124=EDGE_CURVE('',#115,#115,#133,.T.);
#125=EDGE_CURVE('',#116,#116,#134,.T.);
#126=EDGE_CURVE('',#117,#117,#135,.T.);
#127=EDGE_CURVE('',#118,#118,#136,.T.);
#128=EDGE_CURVE('',#119,#119,#137,.T.);
#129=EDGE_CURVE('',#120,#120,#138,.T.);
#130=EDGE_CURVE('',#121,#121,#139,.T.);
#131=EDGE_CURVE('',#122,#122,#140,.T.);
#132=EDGE_CURVE('',#123,#123,#141,.T.);
#133=CIRCLE('',#176,3.50000200891113);
#134=CIRCLE('',#177,4.99999477194252);
#135=CIRCLE('',#179,3.5);
#136=CIRCLE('',#181,3.37202400000001);
#137=CIRCLE('',#183,3.37202400000001);
#138=CIRCLE('',#185,3.19859300000002);
#139=CIRCLE('',#189,3.96499600000001);
#140=CIRCLE('',#191,5.);
#141=CIRCLE('',#193,5.);
#142=PRESENTATION_LAYER_ASSIGNMENT('1','Layer 1',(#171,#172,#173,#174,#175,
#36));
#143=PRESENTATION_LAYER_ASSIGNMENT('2','Layer 2',(#35));
#144=STYLED_ITEM('',(#151),#171);
#145=STYLED_ITEM('',(#152),#172);
#146=STYLED_ITEM('',(#153),#173);
#147=STYLED_ITEM('',(#154),#174);
#148=STYLED_ITEM('',(#155),#175);
#149=STYLED_ITEM('',(#156),#35);
#150=STYLED_ITEM('',(#157),#36);
#151=PRESENTATION_STYLE_ASSIGNMENT((#158));
#152=PRESENTATION_STYLE_ASSIGNMENT((#159));
#153=PRESENTATION_STYLE_ASSIGNMENT((#160));
#154=PRESENTATION_STYLE_ASSIGNMENT((#161));
#155=PRESENTATION_STYLE_ASSIGNMENT((#162));
#156=PRESENTATION_STYLE_ASSIGNMENT((#25));
#157=PRESENTATION_STYLE_ASSIGNMENT((#26));
#158=CURVE_STYLE('',#165,POSITIVE_LENGTH_MEASURE(0.13),#163);
#159=CURVE_STYLE('',#166,POSITIVE_LENGTH_MEASURE(0.13),#163);
#160=CURVE_STYLE('',#167,POSITIVE_LENGTH_MEASURE(0.18),#163);
#161=CURVE_STYLE('',#168,POSITIVE_LENGTH_MEASURE(0.18),#163);
#162=CURVE_STYLE('',#169,POSITIVE_LENGTH_MEASURE(0.18),#163);
#163=COLOUR_RGB('Strong Stone',0.576470588235294,0.54508278019379,0.392156862745098);
#164=COLOUR_RGB('Medium Gray',0.490196078431373,0.490196078431373,0.490196078431373);
#165=DRAUGHTING_PRE_DEFINED_CURVE_FONT('continuous');
#166=DRAUGHTING_PRE_DEFINED_CURVE_FONT('continuous');
#167=DRAUGHTING_PRE_DEFINED_CURVE_FONT('continuous');
#168=DRAUGHTING_PRE_DEFINED_CURVE_FONT('continuous');
#169=DRAUGHTING_PRE_DEFINED_CURVE_FONT('continuous');
#170=AXIS2_PLACEMENT_3D('',#248,#196,#197);
#171=AXIS2_PLACEMENT_3D('',#249,#198,#199);
#172=AXIS2_PLACEMENT_3D('',#250,#200,#201);
#173=AXIS2_PLACEMENT_3D('MCS',#251,#202,#203);
#174=AXIS2_PLACEMENT_3D('PCS',#252,#204,#205);
#175=AXIS2_PLACEMENT_3D('CIP',#253,#206,#207);
#176=AXIS2_PLACEMENT_3D('',#254,#208,#209);
#177=AXIS2_PLACEMENT_3D('',#256,#210,#211);
#178=AXIS2_PLACEMENT_3D('',#258,#212,#213);
#179=AXIS2_PLACEMENT_3D('',#259,#214,#215);
#180=AXIS2_PLACEMENT_3D('',#261,#216,#217);
#181=AXIS2_PLACEMENT_3D('',#262,#218,#219);
#182=AXIS2_PLACEMENT_3D('',#264,#220,#221);
#183=AXIS2_PLACEMENT_3D('',#265,#222,#223);
#184=AXIS2_PLACEMENT_3D('',#267,#224,#225);
#185=AXIS2_PLACEMENT_3D('',#268,#226,#227);
#186=AXIS2_PLACEMENT_3D('',#270,#228,#229);
#187=AXIS2_PLACEMENT_3D('',#271,#230,#231);
#188=AXIS2_PLACEMENT_3D('',#272,#232,#233);
#189=AXIS2_PLACEMENT_3D('',#273,#234,#235);
#190=AXIS2_PLACEMENT_3D('',#275,#236,#237);
#191=AXIS2_PLACEMENT_3D('',#276,#238,#239);
#192=AXIS2_PLACEMENT_3D('',#278,#240,#241);
#193=AXIS2_PLACEMENT_3D('',#279,#242,#243);
#194=AXIS2_PLACEMENT_3D('',#281,#244,#245);
#195=AXIS2_PLACEMENT_3D('',#282,#246,#247);
#196=DIRECTION('',(0.,0.,1.));
#197=DIRECTION('',(1.,0.,0.));
#198=DIRECTION('',(0.,0.,1.));
#199=DIRECTION('',(1.,0.,0.));
#200=DIRECTION('',(0.,0.,1.));
#201=DIRECTION('',(1.,0.,0.));
#202=DIRECTION('',(0.,0.,1.));
#203=DIRECTION('',(1.,0.,0.));
#204=DIRECTION('',(0.,0.,1.));
#205=DIRECTION('',(1.,0.,0.));
#206=DIRECTION('',(0.,0.,1.));
#207=DIRECTION('',(1.,0.,0.));
#208=DIRECTION('',(0.,0.,1.));
#209=DIRECTION('',(1.,0.,0.));
#210=DIRECTION('',(0.,0.,1.));
#211=DIRECTION('',(1.,0.,0.));
#212=DIRECTION('',(0.,0.,1.));
#213=DIRECTION('',(1.,0.,0.));
#214=DIRECTION('',(0.,0.,1.));
#215=DIRECTION('',(1.,0.,0.));
#216=DIRECTION('',(0.,0.,1.));
#217=DIRECTION('',(1.,0.,0.));
#218=DIRECTION('',(0.,0.,1.));
#219=DIRECTION('',(1.,0.,0.));
#220=DIRECTION('',(0.,0.,1.));
#221=DIRECTION('',(1.,0.,1.9988485786085E-18));
#222=DIRECTION('',(0.,0.,1.));
#223=DIRECTION('',(1.,0.,0.));
#224=DIRECTION('',(0.,0.,1.));
#225=DIRECTION('',(1.,0.,0.));
#226=DIRECTION('',(0.,0.,1.));
#227=DIRECTION('',(1.,0.,0.));
#228=DIRECTION('',(0.,0.,1.));
#229=DIRECTION('',(1.,0.,-6.63516108727977E-17));
#230=DIRECTION('',(0.,0.,-1.));
#231=DIRECTION('',(-1.,0.,0.));
#232=DIRECTION('',(0.,0.,1.));
#233=DIRECTION('',(1.,0.,0.));
#234=DIRECTION('',(0.,0.,1.));
#235=DIRECTION('',(1.,0.,0.));
#236=DIRECTION('',(0.,0.,1.));
#237=DIRECTION('',(1.,0.,0.));
#238=DIRECTION('',(0.,0.,1.));
#239=DIRECTION('',(1.,0.,0.));
#240=DIRECTION('',(0.,0.,-1.));
#241=DIRECTION('',(-1.,0.,3.45569505182663E-17));
#242=DIRECTION('',(0.,0.,-1.));
#243=DIRECTION('',(1.,0.,0.));
#244=DIRECTION('',(0.,0.,1.));
#245=DIRECTION('',(1.,0.,0.));
#246=DIRECTION('',(0.,0.,1.));
#247=DIRECTION('',(1.,0.,0.));
#248=CARTESIAN_POINT('',(0.,0.,0.));
#249=CARTESIAN_POINT('',(0.,0.,0.));
#250=CARTESIAN_POINT('',(0.,0.,0.));
#251=CARTESIAN_POINT('',(0.,0.,0.));
#252=CARTESIAN_POINT('',(0.,0.,40.));
#253=CARTESIAN_POINT('',(0.,0.,-37.999985));
#254=CARTESIAN_POINT('',(0.,0.,-6.13598699999994));
#255=CARTESIAN_POINT('',(3.50000200891113,0.,-6.13598699999994));
#256=CARTESIAN_POINT('',(0.,0.,-2.32935866775752E-8));
#257=CARTESIAN_POINT('',(4.99999477194252,0.,-2.32935866775752E-8));
#258=CARTESIAN_POINT('',(0.,0.,-6.13598699999994));
#259=CARTESIAN_POINT('',(0.,0.,-16.829133));
#260=CARTESIAN_POINT('',(3.5,0.,-16.829133));
#261=CARTESIAN_POINT('',(0.,0.,0.));
#262=CARTESIAN_POINT('',(0.,0.,-16.9030126439375));
#263=CARTESIAN_POINT('',(3.37202400000001,0.,-16.9030126439375));
#264=CARTESIAN_POINT('',(0.,0.,-16.829133));
#265=CARTESIAN_POINT('',(0.,0.,-37.7221309711734));
#266=CARTESIAN_POINT('',(3.37202400000001,0.,-37.7221309711734));
#267=CARTESIAN_POINT('',(0.,0.,0.));
#268=CARTESIAN_POINT('',(0.,0.,-37.999985));
#269=CARTESIAN_POINT('',(3.19859300000002,0.,-37.999985));
#270=CARTESIAN_POINT('',(0.,0.,-37.860764));
#271=CARTESIAN_POINT('',(0.,2.70872500000002,-37.999985));
#272=CARTESIAN_POINT('',(0.,0.,0.));
#273=CARTESIAN_POINT('',(0.,0.,40.));
#274=CARTESIAN_POINT('',(3.96499600000001,0.,40.));
#275=CARTESIAN_POINT('',(0.,0.,40.));
#276=CARTESIAN_POINT('',(0.,0.,38.965011));
#277=CARTESIAN_POINT('',(5.,0.,38.965011));
#278=CARTESIAN_POINT('',(0.,0.,40.));
#279=CARTESIAN_POINT('',(0.,0.,0.));
#280=CARTESIAN_POINT('',(5.,0.,0.));
#281=CARTESIAN_POINT('',(0.,0.,0.));
#282=CARTESIAN_POINT('',(0.,0.,0.));
#283=MECHANICAL_DESIGN_GEOMETRIC_PRESENTATION_REPRESENTATION('',(#144,#145,
#146,#147,#148,#149,#150),#284);
#284=(
GEOMETRIC_REPRESENTATION_CONTEXT(3)
GLOBAL_UNCERTAINTY_ASSIGNED_CONTEXT((#285))
GLOBAL_UNIT_ASSIGNED_CONTEXT((#291,#287,#286))
REPRESENTATION_CONTEXT('PMX05-04100-10N1','TOP_LEVEL_ASSEMBLY_PART')
);
#285=UNCERTAINTY_MEASURE_WITH_UNIT(LENGTH_MEASURE(2.E-5),#291,
'DISTANCE_ACCURACY_VALUE','Maximum Tolerance applied to model');
#286=(
NAMED_UNIT(*)
SI_UNIT($,.STERADIAN.)
SOLID_ANGLE_UNIT()
);
#287=(
CONVERSION_BASED_UNIT('DEGREE',#289)
NAMED_UNIT(#288)
PLANE_ANGLE_UNIT()
);
#288=DIMENSIONAL_EXPONENTS(0.,0.,0.,0.,0.,0.,0.);
#289=PLANE_ANGLE_MEASURE_WITH_UNIT(PLANE_ANGLE_MEASURE(0.0174532925),#290);
#290=(
NAMED_UNIT(*)
PLANE_ANGLE_UNIT()
SI_UNIT($,.RADIAN.)
);
#291=(
LENGTH_UNIT()
NAMED_UNIT(*)
SI_UNIT(.MILLI.,.METRE.)
);
ENDSEC;
END-ISO-10303-21;
