ISO-10303-21;
HEADER;
/* Generated by software containing ST-Developer
 * from STEP Tools, Inc. (www.steptools.com) 
 */
/* OPTION: using custom schema-name function */

FILE_DESCRIPTION(
/* description */ (''),
/* implementation_level */ '2;1');

FILE_NAME(
/* name */ 'PMX05-02800-10N1.stp',
/* time_stamp */ '2018-07-12T16:31:58+05:00',
/* author */ (''),
/* organization */ (''),
/* preprocessor_version */ 'ST-DEVELOPER v16',
/* originating_system */ 'SIEMENS PLM Software NX 11.0',
/* authorisation */ '');

FILE_SCHEMA (('AUTOMOTIVE_DESIGN { 1 0 10303 214 3 1 1 1 }'));
ENDSEC;

DATA;
#10=CONSTRUCTIVE_GEOMETRY_REPRESENTATION_RELATIONSHIP(
'supplemental geometry','',#24,#11);
#11=CONSTRUCTIVE_GEOMETRY_REPRESENTATION('supplemental geometry',(#182,
#183,#184,#185,#186),#304);
#12=SHAPE_REPRESENTATION_RELATIONSHIP('None',
'relationship between PMX05-02800-10N1-None and PMX05-02800-10N1-None',
#24,#13);
#13=ADVANCED_BREP_SHAPE_REPRESENTATION('PMX05-02800-10N1-None',(#35,#36),
#304);
#14=SHAPE_DEFINITION_REPRESENTATION(#15,#24);
#15=PRODUCT_DEFINITION_SHAPE('','',#16);
#16=PRODUCT_DEFINITION(' ','',#18,#17);
#17=PRODUCT_DEFINITION_CONTEXT('part definition',#23,'design');
#18=PRODUCT_DEFINITION_FORMATION_WITH_SPECIFIED_SOURCE(' ',' ',#20,
 .NOT_KNOWN.);
#19=PRODUCT_RELATED_PRODUCT_CATEGORY('part','',(#20));
#20=PRODUCT('PMX05-02800-10N1','PMX05-02800-10N1',' ',(#21));
#21=PRODUCT_CONTEXT(' ',#23,'mechanical');
#22=APPLICATION_PROTOCOL_DEFINITION('international standard',
'automotive_design',2010,#23);
#23=APPLICATION_CONTEXT(
'core data for automotive mechanical design processes');
#24=SHAPE_REPRESENTATION('PMX05-02800-10N1-None',(#181),#304);
#25=SURFACE_STYLE_USAGE(.BOTH.,#27);
#26=SURFACE_STYLE_USAGE(.BOTH.,#28);
#27=SURFACE_SIDE_STYLE('',(#29));
#28=SURFACE_SIDE_STYLE('',(#30));
#29=SURFACE_STYLE_FILL_AREA(#31);
#30=SURFACE_STYLE_FILL_AREA(#32);
#31=FILL_AREA_STYLE('',(#33));
#32=FILL_AREA_STYLE('',(#34));
#33=FILL_AREA_STYLE_COLOUR('',#175);
#34=FILL_AREA_STYLE_COLOUR('',#175);
#35=MANIFOLD_SOLID_BREP('NOCUT',#37);
#36=MANIFOLD_SOLID_BREP('NOCUT',#38);
#37=CLOSED_SHELL('',(#51,#52,#53,#54,#55,#56,#57,#58));
#38=CLOSED_SHELL('',(#59,#60,#61,#62));
#39=PLANE('',#200);
#40=PLANE('',#201);
#41=PLANE('',#203);
#42=PLANE('',#205);
#43=FACE_OUTER_BOUND('',#95,.T.);
#44=FACE_OUTER_BOUND('',#96,.T.);
#45=FACE_OUTER_BOUND('',#97,.T.);
#46=FACE_OUTER_BOUND('',#98,.T.);
#47=CYLINDRICAL_SURFACE('',#193,3.5);
#48=CYLINDRICAL_SURFACE('',#197,3.375);
#49=CYLINDRICAL_SURFACE('',#208,5.);
#50=TOROIDAL_SURFACE('',#191,4.5,0.999999999999998);
#51=ADVANCED_FACE('',(#67,#68),#63,.T.);
#52=ADVANCED_FACE('',(#69,#70),#50,.F.);
#53=ADVANCED_FACE('',(#71,#72),#47,.T.);
#54=ADVANCED_FACE('',(#73,#74),#64,.T.);
#55=ADVANCED_FACE('',(#75,#76),#48,.T.);
#56=ADVANCED_FACE('',(#77,#78),#65,.T.);
#57=ADVANCED_FACE('',(#43),#39,.F.);
#58=ADVANCED_FACE('',(#44),#40,.F.);
#59=ADVANCED_FACE('',(#45),#41,.T.);
#60=ADVANCED_FACE('',(#46),#42,.F.);
#61=ADVANCED_FACE('',(#79,#80),#66,.T.);
#62=ADVANCED_FACE('',(#81,#82),#49,.T.);
#63=CONICAL_SURFACE('',#189,5.,48.4152644429949);
#64=CONICAL_SURFACE('',#195,3.5,59.9998274028726);
#65=CONICAL_SURFACE('',#199,3.375,30.0000363998684);
#66=CONICAL_SURFACE('',#207,3.965,45.0000000000003);
#67=FACE_BOUND('',#83,.T.);
#68=FACE_BOUND('',#84,.T.);
#69=FACE_BOUND('',#85,.T.);
#70=FACE_BOUND('',#86,.T.);
#71=FACE_BOUND('',#87,.T.);
#72=FACE_BOUND('',#88,.T.);
#73=FACE_BOUND('',#89,.T.);
#74=FACE_BOUND('',#90,.T.);
#75=FACE_BOUND('',#91,.T.);
#76=FACE_BOUND('',#92,.T.);
#77=FACE_BOUND('',#93,.T.);
#78=FACE_BOUND('',#94,.T.);
#79=FACE_BOUND('',#99,.T.);
#80=FACE_BOUND('',#100,.T.);
#81=FACE_BOUND('',#101,.T.);
#82=FACE_BOUND('',#102,.T.);
#83=EDGE_LOOP('',(#103));
#84=EDGE_LOOP('',(#104));
#85=EDGE_LOOP('',(#105));
#86=EDGE_LOOP('',(#106));
#87=EDGE_LOOP('',(#107));
#88=EDGE_LOOP('',(#108));
#89=EDGE_LOOP('',(#109));
#90=EDGE_LOOP('',(#110));
#91=EDGE_LOOP('',(#111));
#92=EDGE_LOOP('',(#112));
#93=EDGE_LOOP('',(#113));
#94=EDGE_LOOP('',(#114));
#95=EDGE_LOOP('',(#115));
#96=EDGE_LOOP('',(#116));
#97=EDGE_LOOP('',(#117));
#98=EDGE_LOOP('',(#118));
#99=EDGE_LOOP('',(#119));
#100=EDGE_LOOP('',(#120));
#101=EDGE_LOOP('',(#121));
#102=EDGE_LOOP('',(#122));
#103=ORIENTED_EDGE('',*,*,#133,.F.);
#104=ORIENTED_EDGE('',*,*,#134,.T.);
#105=ORIENTED_EDGE('',*,*,#135,.F.);
#106=ORIENTED_EDGE('',*,*,#133,.T.);
#107=ORIENTED_EDGE('',*,*,#136,.F.);
#108=ORIENTED_EDGE('',*,*,#135,.T.);
#109=ORIENTED_EDGE('',*,*,#137,.F.);
#110=ORIENTED_EDGE('',*,*,#136,.T.);
#111=ORIENTED_EDGE('',*,*,#138,.F.);
#112=ORIENTED_EDGE('',*,*,#137,.T.);
#113=ORIENTED_EDGE('',*,*,#139,.F.);
#114=ORIENTED_EDGE('',*,*,#138,.T.);
#115=ORIENTED_EDGE('',*,*,#139,.T.);
#116=ORIENTED_EDGE('',*,*,#134,.F.);
#117=ORIENTED_EDGE('',*,*,#140,.T.);
#118=ORIENTED_EDGE('',*,*,#141,.F.);
#119=ORIENTED_EDGE('',*,*,#142,.F.);
#120=ORIENTED_EDGE('',*,*,#141,.T.);
#121=ORIENTED_EDGE('',*,*,#140,.F.);
#122=ORIENTED_EDGE('',*,*,#142,.T.);
#123=VERTEX_POINT('',#272);
#124=VERTEX_POINT('',#274);
#125=VERTEX_POINT('',#277);
#126=VERTEX_POINT('',#280);
#127=VERTEX_POINT('',#283);
#128=VERTEX_POINT('',#286);
#129=VERTEX_POINT('',#289);
#130=VERTEX_POINT('',#294);
#131=VERTEX_POINT('',#297);
#132=VERTEX_POINT('',#300);
#133=EDGE_CURVE('',#123,#123,#143,.T.);
#134=EDGE_CURVE('',#124,#124,#144,.T.);
#135=EDGE_CURVE('',#125,#125,#145,.T.);
#136=EDGE_CURVE('',#126,#126,#146,.T.);
#137=EDGE_CURVE('',#127,#127,#147,.T.);
#138=EDGE_CURVE('',#128,#128,#148,.T.);
#139=EDGE_CURVE('',#129,#129,#149,.T.);
#140=EDGE_CURVE('',#130,#130,#150,.T.);
#141=EDGE_CURVE('',#131,#131,#151,.T.);
#142=EDGE_CURVE('',#132,#132,#152,.T.);
#143=CIRCLE('',#187,3.836274);
#144=CIRCLE('',#188,5.);
#145=CIRCLE('',#190,3.5);
#146=CIRCLE('',#192,3.5);
#147=CIRCLE('',#194,3.375);
#148=CIRCLE('',#196,3.375);
#149=CIRCLE('',#198,3.21132499999999);
#150=CIRCLE('',#202,5.);
#151=CIRCLE('',#204,3.965);
#152=CIRCLE('',#206,5.);
#153=PRESENTATION_LAYER_ASSIGNMENT('1','Layer 1',(#182,#183,#184,#185,#186,
#36));
#154=PRESENTATION_LAYER_ASSIGNMENT('2','Layer 2',(#35));
#155=STYLED_ITEM('',(#162),#182);
#156=STYLED_ITEM('',(#163),#183);
#157=STYLED_ITEM('',(#164),#184);
#158=STYLED_ITEM('',(#165),#185);
#159=STYLED_ITEM('',(#166),#186);
#160=STYLED_ITEM('',(#167),#35);
#161=STYLED_ITEM('',(#168),#36);
#162=PRESENTATION_STYLE_ASSIGNMENT((#169));
#163=PRESENTATION_STYLE_ASSIGNMENT((#170));
#164=PRESENTATION_STYLE_ASSIGNMENT((#171));
#165=PRESENTATION_STYLE_ASSIGNMENT((#172));
#166=PRESENTATION_STYLE_ASSIGNMENT((#173));
#167=PRESENTATION_STYLE_ASSIGNMENT((#25));
#168=PRESENTATION_STYLE_ASSIGNMENT((#26));
#169=CURVE_STYLE('',#176,POSITIVE_LENGTH_MEASURE(0.13),#174);
#170=CURVE_STYLE('',#177,POSITIVE_LENGTH_MEASURE(0.13),#174);
#171=CURVE_STYLE('',#178,POSITIVE_LENGTH_MEASURE(0.18),#174);
#172=CURVE_STYLE('',#179,POSITIVE_LENGTH_MEASURE(0.18),#174);
#173=CURVE_STYLE('',#180,POSITIVE_LENGTH_MEASURE(0.18),#174);
#174=COLOUR_RGB('Strong Stone',0.576470588235294,0.54508278019379,0.392156862745098);
#175=COLOUR_RGB('Medium Gray',0.490196078431373,0.490196078431373,0.490196078431373);
#176=DRAUGHTING_PRE_DEFINED_CURVE_FONT('continuous');
#177=DRAUGHTING_PRE_DEFINED_CURVE_FONT('continuous');
#178=DRAUGHTING_PRE_DEFINED_CURVE_FONT('continuous');
#179=DRAUGHTING_PRE_DEFINED_CURVE_FONT('continuous');
#180=DRAUGHTING_PRE_DEFINED_CURVE_FONT('continuous');
#181=AXIS2_PLACEMENT_3D('',#265,#209,#210);
#182=AXIS2_PLACEMENT_3D('',#266,#211,#212);
#183=AXIS2_PLACEMENT_3D('',#267,#213,#214);
#184=AXIS2_PLACEMENT_3D('MCS',#268,#215,#216);
#185=AXIS2_PLACEMENT_3D('PCS',#269,#217,#218);
#186=AXIS2_PLACEMENT_3D('CIP',#270,#219,#220);
#187=AXIS2_PLACEMENT_3D('',#271,#221,#222);
#188=AXIS2_PLACEMENT_3D('',#273,#223,#224);
#189=AXIS2_PLACEMENT_3D('',#275,#225,#226);
#190=AXIS2_PLACEMENT_3D('',#276,#227,#228);
#191=AXIS2_PLACEMENT_3D('',#278,#229,#230);
#192=AXIS2_PLACEMENT_3D('',#279,#231,#232);
#193=AXIS2_PLACEMENT_3D('',#281,#233,#234);
#194=AXIS2_PLACEMENT_3D('',#282,#235,#236);
#195=AXIS2_PLACEMENT_3D('',#284,#237,#238);
#196=AXIS2_PLACEMENT_3D('',#285,#239,#240);
#197=AXIS2_PLACEMENT_3D('',#287,#241,#242);
#198=AXIS2_PLACEMENT_3D('',#288,#243,#244);
#199=AXIS2_PLACEMENT_3D('',#290,#245,#246);
#200=AXIS2_PLACEMENT_3D('',#291,#247,#248);
#201=AXIS2_PLACEMENT_3D('',#292,#249,#250);
#202=AXIS2_PLACEMENT_3D('',#293,#251,#252);
#203=AXIS2_PLACEMENT_3D('',#295,#253,#254);
#204=AXIS2_PLACEMENT_3D('',#296,#255,#256);
#205=AXIS2_PLACEMENT_3D('',#298,#257,#258);
#206=AXIS2_PLACEMENT_3D('',#299,#259,#260);
#207=AXIS2_PLACEMENT_3D('',#301,#261,#262);
#208=AXIS2_PLACEMENT_3D('',#302,#263,#264);
#209=DIRECTION('',(0.,0.,1.));
#210=DIRECTION('',(1.,0.,0.));
#211=DIRECTION('',(0.,0.,1.));
#212=DIRECTION('',(1.,0.,0.));
#213=DIRECTION('',(0.,0.,1.));
#214=DIRECTION('',(1.,0.,0.));
#215=DIRECTION('',(0.,0.,1.));
#216=DIRECTION('',(1.,0.,0.));
#217=DIRECTION('',(0.,0.,1.));
#218=DIRECTION('',(1.,0.,0.));
#219=DIRECTION('',(0.,0.,1.));
#220=DIRECTION('',(1.,0.,0.));
#221=DIRECTION('',(0.,0.,-1.));
#222=DIRECTION('',(-1.,0.,0.));
#223=DIRECTION('',(0.,0.,-1.));
#224=DIRECTION('',(-1.,0.,0.));
#225=DIRECTION('',(0.,0.,1.));
#226=DIRECTION('',(-1.,0.,0.));
#227=DIRECTION('',(0.,0.,-1.));
#228=DIRECTION('',(-1.,0.,0.));
#229=DIRECTION('',(0.,0.,-1.));
#230=DIRECTION('',(1.,0.,0.));
#231=DIRECTION('',(0.,0.,-1.));
#232=DIRECTION('',(-1.,0.,0.));
#233=DIRECTION('',(0.,0.,-1.));
#234=DIRECTION('',(1.,0.,0.));
#235=DIRECTION('',(0.,0.,-1.));
#236=DIRECTION('',(-1.,0.,0.));
#237=DIRECTION('',(0.,0.,1.));
#238=DIRECTION('',(-1.,0.,-2.27393130200973E-17));
#239=DIRECTION('',(0.,0.,-1.));
#240=DIRECTION('',(-1.,0.,0.));
#241=DIRECTION('',(0.,0.,-1.));
#242=DIRECTION('',(1.,0.,0.));
#243=DIRECTION('',(0.,0.,-1.));
#244=DIRECTION('',(-1.,0.,0.));
#245=DIRECTION('',(0.,0.,1.));
#246=DIRECTION('',(-1.,0.,-8.96148852665021E-17));
#247=DIRECTION('',(0.,0.,1.));
#248=DIRECTION('',(-1.,0.,0.));
#249=DIRECTION('',(0.,0.,-1.));
#250=DIRECTION('',(1.,0.,0.));
#251=DIRECTION('',(0.,0.,-1.));
#252=DIRECTION('',(-1.,0.,0.));
#253=DIRECTION('',(0.,0.,-1.));
#254=DIRECTION('',(1.,0.,0.));
#255=DIRECTION('',(0.,0.,-1.));
#256=DIRECTION('',(-1.,0.,0.));
#257=DIRECTION('',(0.,0.,-1.));
#258=DIRECTION('',(1.,0.,0.));
#259=DIRECTION('',(0.,0.,-1.));
#260=DIRECTION('',(-1.,0.,0.));
#261=DIRECTION('',(0.,0.,-1.));
#262=DIRECTION('',(1.,0.,3.45574492333257E-17));
#263=DIRECTION('',(0.,0.,-1.));
#264=DIRECTION('',(1.,0.,0.));
#265=CARTESIAN_POINT('',(0.,0.,0.));
#266=CARTESIAN_POINT('',(0.,0.,0.));
#267=CARTESIAN_POINT('',(0.,0.,0.));
#268=CARTESIAN_POINT('',(0.,0.,0.));
#269=CARTESIAN_POINT('',(0.,0.,40.));
#270=CARTESIAN_POINT('',(0.,0.,-23.));
#271=CARTESIAN_POINT('',(0.,0.,-1.03264999999999));
#272=CARTESIAN_POINT('',(-3.836274,0.,-1.03264999999999));
#273=CARTESIAN_POINT('',(0.,0.,0.));
#274=CARTESIAN_POINT('',(-5.,0.,0.));
#275=CARTESIAN_POINT('',(0.,0.,0.));
#276=CARTESIAN_POINT('',(0.,0.,-1.78062499999999));
#277=CARTESIAN_POINT('',(-3.5,0.,-1.78062499999999));
#278=CARTESIAN_POINT('',(0.,0.,-1.78062499999998));
#279=CARTESIAN_POINT('',(0.,0.,-1.82914100000005));
#280=CARTESIAN_POINT('',(-3.5,0.,-1.82914100000005));
#281=CARTESIAN_POINT('',(0.,0.,42.0881124012692));
#282=CARTESIAN_POINT('',(0.,0.,-1.90131028571432));
#283=CARTESIAN_POINT('',(-3.375,0.,-1.90131028571432));
#284=CARTESIAN_POINT('',(0.,0.,-1.82914100000005));
#285=CARTESIAN_POINT('',(0.,0.,-22.716507));
#286=CARTESIAN_POINT('',(-3.375,0.,-22.716507));
#287=CARTESIAN_POINT('',(0.,0.,42.0881124012692));
#288=CARTESIAN_POINT('',(0.,0.,-23.));
#289=CARTESIAN_POINT('',(-3.21132499999999,0.,-23.));
#290=CARTESIAN_POINT('',(0.,0.,-22.716507));
#291=CARTESIAN_POINT('',(0.,3.21132499999999,-23.));
#292=CARTESIAN_POINT('',(0.,0.,0.));
#293=CARTESIAN_POINT('',(0.,0.,0.));
#294=CARTESIAN_POINT('',(-5.,0.,0.));
#295=CARTESIAN_POINT('',(0.,0.,0.));
#296=CARTESIAN_POINT('',(0.,0.,40.));
#297=CARTESIAN_POINT('',(-3.965,0.,40.));
#298=CARTESIAN_POINT('',(0.,0.,40.));
#299=CARTESIAN_POINT('',(0.,0.,38.965));
#300=CARTESIAN_POINT('',(-5.,0.,38.965));
#301=CARTESIAN_POINT('',(0.,0.,40.));
#302=CARTESIAN_POINT('',(0.,0.,42.0881124012692));
#303=MECHANICAL_DESIGN_GEOMETRIC_PRESENTATION_REPRESENTATION('',(#155,#156,
#157,#158,#159,#160,#161),#304);
#304=(
GEOMETRIC_REPRESENTATION_CONTEXT(3)
GLOBAL_UNCERTAINTY_ASSIGNED_CONTEXT((#305))
GLOBAL_UNIT_ASSIGNED_CONTEXT((#311,#307,#306))
REPRESENTATION_CONTEXT('PMX05-02800-10N1','TOP_LEVEL_ASSEMBLY_PART')
);
#305=UNCERTAINTY_MEASURE_WITH_UNIT(LENGTH_MEASURE(2.E-5),#311,
'DISTANCE_ACCURACY_VALUE','Maximum Tolerance applied to model');
#306=(
NAMED_UNIT(*)
SI_UNIT($,.STERADIAN.)
SOLID_ANGLE_UNIT()
);
#307=(
CONVERSION_BASED_UNIT('DEGREE',#309)
NAMED_UNIT(#308)
PLANE_ANGLE_UNIT()
);
#308=DIMENSIONAL_EXPONENTS(0.,0.,0.,0.,0.,0.,0.);
#309=PLANE_ANGLE_MEASURE_WITH_UNIT(PLANE_ANGLE_MEASURE(0.0174532925),#310);
#310=(
NAMED_UNIT(*)
PLANE_ANGLE_UNIT()
SI_UNIT($,.RADIAN.)
);
#311=(
LENGTH_UNIT()
NAMED_UNIT(*)
SI_UNIT(.MILLI.,.METRE.)
);
ENDSEC;
END-ISO-10303-21;
