ISO-10303-21;
HEADER;
/* Generated by software containing ST-Developer
 * from STEP Tools, Inc. (www.steptools.com) 
 */
/* OPTION: using custom schema-name function */

FILE_DESCRIPTION(
/* description */ (''),
/* implementation_level */ '2;1');

FILE_NAME(
/* name */ 'PM07B-06400-0625N1.stp',
/* time_stamp */ '2012-04-04T09:44:43+05:00',
/* author */ (''),
/* organization */ (''),
/* preprocessor_version */ 'ST-DEVELOPER v11',
/* originating_system */ 'SIEMENS PLM Software NX 7.5',
/* authorisation */ '');

FILE_SCHEMA (('AUTOMOTIVE_DESIGN { 1 0 10303 214 1 1 1 1 }'));
ENDSEC;

DATA;
#10=SHAPE_REPRESENTATION_RELATIONSHIP('None',
'relationship between inpu617Axptb-None and inpu617Axptb-None',#22,#11);
#11=ADVANCED_BREP_SHAPE_REPRESENTATION('inpu617Axptb-None',(#40,#41),#301);
#12=SHAPE_DEFINITION_REPRESENTATION(#13,#22);
#13=PRODUCT_DEFINITION_SHAPE('','',#14);
#14=PRODUCT_DEFINITION(' ','',#16,#15);
#15=PRODUCT_DEFINITION_CONTEXT('part definition',#21,'design');
#16=PRODUCT_DEFINITION_FORMATION_WITH_SPECIFIED_SOURCE(' ',' ',#18,.NOT_KNOWN.);
#17=PRODUCT_RELATED_PRODUCT_CATEGORY('part','',(#18));
#18=PRODUCT('inpu617Axptb','inpu617Axptb',' ',(#19));
#19=PRODUCT_CONTEXT(' ',#21,'mechanical');
#20=APPLICATION_PROTOCOL_DEFINITION('international standard',
'automotive_design',2001,#21);
#21=APPLICATION_CONTEXT(
'core data for automotive mechanical design processes');
#22=SHAPE_REPRESENTATION('inpu617Axptb-None',(#180),#301);
#23=PRESENTATION_LAYER_ASSIGNMENT('2','Layer 2',(#40));
#24=PRESENTATION_LAYER_ASSIGNMENT('1','Layer 1',(#41));
#25=STYLED_ITEM('',(#27),#40);
#26=STYLED_ITEM('',(#28),#41);
#27=PRESENTATION_STYLE_ASSIGNMENT((#29));
#28=PRESENTATION_STYLE_ASSIGNMENT((#30));
#29=SURFACE_STYLE_USAGE(.BOTH.,#31);
#30=SURFACE_STYLE_USAGE(.BOTH.,#32);
#31=SURFACE_SIDE_STYLE('',(#33));
#32=SURFACE_SIDE_STYLE('',(#34));
#33=SURFACE_STYLE_FILL_AREA(#35);
#34=SURFACE_STYLE_FILL_AREA(#36);
#35=FILL_AREA_STYLE('',(#37));
#36=FILL_AREA_STYLE('',(#38));
#37=FILL_AREA_STYLE_COLOUR('',#39);
#38=FILL_AREA_STYLE_COLOUR('',#39);
#39=COLOUR_RGB('Medium Gray',0.490196078431373,0.490196078431373,0.490196078431373);
#40=MANIFOLD_SOLID_BREP('',#42);
#41=MANIFOLD_SOLID_BREP('',#43);
#42=CLOSED_SHELL('',(#57,#58,#59,#60,#61,#62,#63,#64,#65,#66));
#43=CLOSED_SHELL('',(#67,#68,#69,#70));
#44=FACE_OUTER_BOUND('',#108,.T.);
#45=FACE_OUTER_BOUND('',#111,.T.);
#46=FACE_OUTER_BOUND('',#114,.T.);
#47=FACE_OUTER_BOUND('',#115,.T.);
#48=CYLINDRICAL_SURFACE('',#187,5.50000000000001);
#49=CYLINDRICAL_SURFACE('',#191,4.90000000000001);
#50=CYLINDRICAL_SURFACE('',#197,3.5);
#51=CYLINDRICAL_SURFACE('',#206,7.9375);
#52=CONICAL_SURFACE('',#185,5.025,45.0000000000007);
#53=CONICAL_SURFACE('',#189,5.50000000000001,44.9999999999999);
#54=CONICAL_SURFACE('',#193,4.90000000000001,44.99999999997);
#55=CONICAL_SURFACE('',#199,4.133494,45.0000000000001);
#56=CONICAL_SURFACE('',#205,7.93750000000001,45.);
#57=ADVANCED_FACE('',(#76,#77),#71,.T.);
#58=ADVANCED_FACE('',(#78,#79),#52,.T.);
#59=ADVANCED_FACE('',(#80,#81),#48,.T.);
#60=ADVANCED_FACE('',(#82,#83),#53,.T.);
#61=ADVANCED_FACE('',(#84,#85),#49,.T.);
#62=ADVANCED_FACE('',(#86,#87),#54,.T.);
#63=ADVANCED_FACE('',(#44),#72,.F.);
#64=ADVANCED_FACE('',(#88,#89),#50,.F.);
#65=ADVANCED_FACE('',(#45),#73,.F.);
#66=ADVANCED_FACE('',(#90,#91),#55,.F.);
#67=ADVANCED_FACE('',(#46),#74,.T.);
#68=ADVANCED_FACE('',(#47),#75,.T.);
#69=ADVANCED_FACE('',(#92,#93),#56,.T.);
#70=ADVANCED_FACE('',(#94,#95),#51,.T.);
#71=PLANE('',#183);
#72=PLANE('',#195);
#73=PLANE('',#198);
#74=PLANE('',#201);
#75=PLANE('',#203);
#76=FACE_BOUND('',#96,.T.);
#77=FACE_BOUND('',#97,.T.);
#78=FACE_BOUND('',#98,.T.);
#79=FACE_BOUND('',#99,.T.);
#80=FACE_BOUND('',#100,.T.);
#81=FACE_BOUND('',#101,.T.);
#82=FACE_BOUND('',#102,.T.);
#83=FACE_BOUND('',#103,.T.);
#84=FACE_BOUND('',#104,.T.);
#85=FACE_BOUND('',#105,.T.);
#86=FACE_BOUND('',#106,.T.);
#87=FACE_BOUND('',#107,.T.);
#88=FACE_BOUND('',#109,.T.);
#89=FACE_BOUND('',#110,.T.);
#90=FACE_BOUND('',#112,.T.);
#91=FACE_BOUND('',#113,.T.);
#92=FACE_BOUND('',#116,.T.);
#93=FACE_BOUND('',#117,.T.);
#94=FACE_BOUND('',#118,.T.);
#95=FACE_BOUND('',#119,.T.);
#96=EDGE_LOOP('',(#120));
#97=EDGE_LOOP('',(#121));
#98=EDGE_LOOP('',(#122));
#99=EDGE_LOOP('',(#123));
#100=EDGE_LOOP('',(#124));
#101=EDGE_LOOP('',(#125));
#102=EDGE_LOOP('',(#126));
#103=EDGE_LOOP('',(#127));
#104=EDGE_LOOP('',(#128));
#105=EDGE_LOOP('',(#129));
#106=EDGE_LOOP('',(#130));
#107=EDGE_LOOP('',(#131));
#108=EDGE_LOOP('',(#132));
#109=EDGE_LOOP('',(#133));
#110=EDGE_LOOP('',(#134));
#111=EDGE_LOOP('',(#135));
#112=EDGE_LOOP('',(#136));
#113=EDGE_LOOP('',(#137));
#114=EDGE_LOOP('',(#138));
#115=EDGE_LOOP('',(#139));
#116=EDGE_LOOP('',(#140));
#117=EDGE_LOOP('',(#141));
#118=EDGE_LOOP('',(#142));
#119=EDGE_LOOP('',(#143));
#120=ORIENTED_EDGE('',*,*,#156,.T.);
#121=ORIENTED_EDGE('',*,*,#157,.T.);
#122=ORIENTED_EDGE('',*,*,#158,.T.);
#123=ORIENTED_EDGE('',*,*,#157,.F.);
#124=ORIENTED_EDGE('',*,*,#159,.T.);
#125=ORIENTED_EDGE('',*,*,#158,.F.);
#126=ORIENTED_EDGE('',*,*,#160,.T.);
#127=ORIENTED_EDGE('',*,*,#159,.F.);
#128=ORIENTED_EDGE('',*,*,#161,.T.);
#129=ORIENTED_EDGE('',*,*,#160,.F.);
#130=ORIENTED_EDGE('',*,*,#162,.F.);
#131=ORIENTED_EDGE('',*,*,#161,.F.);
#132=ORIENTED_EDGE('',*,*,#163,.F.);
#133=ORIENTED_EDGE('',*,*,#164,.T.);
#134=ORIENTED_EDGE('',*,*,#163,.T.);
#135=ORIENTED_EDGE('',*,*,#162,.T.);
#136=ORIENTED_EDGE('',*,*,#164,.F.);
#137=ORIENTED_EDGE('',*,*,#156,.F.);
#138=ORIENTED_EDGE('',*,*,#165,.T.);
#139=ORIENTED_EDGE('',*,*,#166,.F.);
#140=ORIENTED_EDGE('',*,*,#166,.T.);
#141=ORIENTED_EDGE('',*,*,#167,.F.);
#142=ORIENTED_EDGE('',*,*,#167,.T.);
#143=ORIENTED_EDGE('',*,*,#165,.F.);
#144=VERTEX_POINT('',#263);
#145=VERTEX_POINT('',#265);
#146=VERTEX_POINT('',#268);
#147=VERTEX_POINT('',#271);
#148=VERTEX_POINT('',#274);
#149=VERTEX_POINT('',#277);
#150=VERTEX_POINT('',#280);
#151=VERTEX_POINT('',#283);
#152=VERTEX_POINT('',#286);
#153=VERTEX_POINT('',#291);
#154=VERTEX_POINT('',#294);
#155=VERTEX_POINT('',#297);
#156=EDGE_CURVE('',#144,#144,#168,.T.);
#157=EDGE_CURVE('',#145,#145,#169,.T.);
#158=EDGE_CURVE('',#146,#146,#170,.T.);
#159=EDGE_CURVE('',#147,#147,#171,.T.);
#160=EDGE_CURVE('',#148,#148,#172,.T.);
#161=EDGE_CURVE('',#149,#149,#173,.T.);
#162=EDGE_CURVE('',#150,#150,#174,.T.);
#163=EDGE_CURVE('',#151,#151,#175,.T.);
#164=EDGE_CURVE('',#152,#152,#176,.T.);
#165=EDGE_CURVE('',#153,#153,#177,.T.);
#166=EDGE_CURVE('',#154,#154,#178,.T.);
#167=EDGE_CURVE('',#155,#155,#179,.T.);
#168=CIRCLE('',#181,4.133494);
#169=CIRCLE('',#182,5.025);
#170=CIRCLE('',#184,5.5);
#171=CIRCLE('',#186,5.50000000000001);
#172=CIRCLE('',#188,4.90000000000001);
#173=CIRCLE('',#190,4.90000000000001);
#174=CIRCLE('',#192,7.9375);
#175=CIRCLE('',#194,3.5);
#176=CIRCLE('',#196,3.5);
#177=CIRCLE('',#200,7.9375);
#178=CIRCLE('',#202,6.39950000000001);
#179=CIRCLE('',#204,7.93750000000001);
#180=AXIS2_PLACEMENT_3D('',#261,#207,#208);
#181=AXIS2_PLACEMENT_3D('',#262,#209,#210);
#182=AXIS2_PLACEMENT_3D('',#264,#211,#212);
#183=AXIS2_PLACEMENT_3D('',#266,#213,#214);
#184=AXIS2_PLACEMENT_3D('',#267,#215,#216);
#185=AXIS2_PLACEMENT_3D('',#269,#217,#218);
#186=AXIS2_PLACEMENT_3D('',#270,#219,#220);
#187=AXIS2_PLACEMENT_3D('',#272,#221,#222);
#188=AXIS2_PLACEMENT_3D('',#273,#223,#224);
#189=AXIS2_PLACEMENT_3D('',#275,#225,#226);
#190=AXIS2_PLACEMENT_3D('',#276,#227,#228);
#191=AXIS2_PLACEMENT_3D('',#278,#229,#230);
#192=AXIS2_PLACEMENT_3D('',#279,#231,#232);
#193=AXIS2_PLACEMENT_3D('',#281,#233,#234);
#194=AXIS2_PLACEMENT_3D('',#282,#235,#236);
#195=AXIS2_PLACEMENT_3D('',#284,#237,#238);
#196=AXIS2_PLACEMENT_3D('',#285,#239,#240);
#197=AXIS2_PLACEMENT_3D('',#287,#241,#242);
#198=AXIS2_PLACEMENT_3D('',#288,#243,#244);
#199=AXIS2_PLACEMENT_3D('',#289,#245,#246);
#200=AXIS2_PLACEMENT_3D('',#290,#247,#248);
#201=AXIS2_PLACEMENT_3D('',#292,#249,#250);
#202=AXIS2_PLACEMENT_3D('',#293,#251,#252);
#203=AXIS2_PLACEMENT_3D('',#295,#253,#254);
#204=AXIS2_PLACEMENT_3D('',#296,#255,#256);
#205=AXIS2_PLACEMENT_3D('',#298,#257,#258);
#206=AXIS2_PLACEMENT_3D('',#299,#259,#260);
#207=DIRECTION('',(0.,0.,1.));
#208=DIRECTION('',(1.,0.,0.));
#209=DIRECTION('',(-1.2212249569616E-016,0.,1.));
#210=DIRECTION('',(-1.,0.,0.));
#211=DIRECTION('',(1.2212249569616E-016,0.,-1.));
#212=DIRECTION('',(-1.,0.,0.));
#213=DIRECTION('',(1.2212249569616E-016,0.,-1.));
#214=DIRECTION('',(-1.,0.,-1.2490009027033E-016));
#215=DIRECTION('',(1.2212249569616E-016,0.,-1.));
#216=DIRECTION('',(-1.,0.,0.));
#217=DIRECTION('',(-1.2212249569616E-016,0.,1.));
#218=DIRECTION('',(1.,0.,7.59462032715382E-017));
#219=DIRECTION('',(1.2212249569616E-016,0.,-1.));
#220=DIRECTION('',(-1.,0.,0.));
#221=DIRECTION('',(1.2212249569616E-016,0.,-1.));
#222=DIRECTION('',(-1.,0.,0.));
#223=DIRECTION('',(1.2212249569616E-016,0.,-1.));
#224=DIRECTION('',(-1.,0.,0.));
#225=DIRECTION('',(1.2212249569616E-016,0.,-1.));
#226=DIRECTION('',(-1.,0.,-1.44919713557486E-016));
#227=DIRECTION('',(1.2212249569616E-016,0.,-1.));
#228=DIRECTION('',(-1.,0.,-8.85062997947348E-017));
#229=DIRECTION('',(1.2212249569616E-016,0.,-1.));
#230=DIRECTION('',(-1.,0.,0.));
#231=DIRECTION('',(0.,0.,1.));
#232=DIRECTION('',(-1.,0.,0.));
#233=DIRECTION('',(-1.2212249569616E-016,0.,1.));
#234=DIRECTION('',(1.,0.,1.38101182285092E-016));
#235=DIRECTION('',(-1.2212249569616E-016,0.,1.));
#236=DIRECTION('',(1.,0.,0.));
#237=DIRECTION('',(-1.2212249569616E-016,0.,1.));
#238=DIRECTION('',(1.,0.,1.2490009027033E-016));
#239=DIRECTION('',(1.2212249569616E-016,0.,-1.));
#240=DIRECTION('',(-1.,0.,0.));
#241=DIRECTION('',(-1.2212249569616E-016,0.,1.));
#242=DIRECTION('',(1.,0.,0.));
#243=DIRECTION('',(0.,0.,-1.));
#244=DIRECTION('',(-1.,0.,0.));
#245=DIRECTION('',(1.2212249569616E-016,0.,-1.));
#246=DIRECTION('',(-1.,0.,-2.55682213548956E-016));
#247=DIRECTION('',(1.2212249569616E-016,0.,-1.));
#248=DIRECTION('',(-1.,0.,-1.2212249569616E-016));
#249=DIRECTION('',(0.,0.,-1.));
#250=DIRECTION('',(-1.,0.,0.));
#251=DIRECTION('',(1.2212249569616E-016,0.,-1.));
#252=DIRECTION('',(-1.,0.,0.));
#253=DIRECTION('',(-1.2212249569616E-016,0.,1.));
#254=DIRECTION('',(1.,0.,1.2490009027033E-016));
#255=DIRECTION('',(1.2212249569616E-016,0.,-1.));
#256=DIRECTION('',(-1.,0.,0.));
#257=DIRECTION('',(1.2212249569616E-016,0.,-1.));
#258=DIRECTION('',(-1.,0.,-1.23916503027549E-016));
#259=DIRECTION('',(1.2212249569616E-016,0.,-1.));
#260=DIRECTION('',(-1.,0.,0.));
#261=CARTESIAN_POINT('',(0.,0.,0.));
#262=CARTESIAN_POINT('',(-2.75545529808154E-016,0.,-55.15));
#263=CARTESIAN_POINT('',(-4.133494,0.,-55.15));
#264=CARTESIAN_POINT('',(-2.75545529808155E-016,0.,-55.15));
#265=CARTESIAN_POINT('',(-5.025,0.,-55.15));
#266=CARTESIAN_POINT('',(3.74711836870845E-032,0.,-55.15));
#267=CARTESIAN_POINT('',(-3.33553715263829E-016,0.,-54.675));
#268=CARTESIAN_POINT('',(-5.5,0.,-54.675));
#269=CARTESIAN_POINT('',(-2.75545529808155E-016,0.,-55.15));
#270=CARTESIAN_POINT('',(-2.00357884390881E-015,0.,-41.));
#271=CARTESIAN_POINT('',(-5.50000000000001,0.,-41.));
#272=CARTESIAN_POINT('',(-1.28785870856518E-014,0.,48.05));
#273=CARTESIAN_POINT('',(-2.07685234132651E-015,0.,-40.4));
#274=CARTESIAN_POINT('',(-4.90000000000001,0.,-40.4));
#275=CARTESIAN_POINT('',(-2.00357884390881E-015,0.,-41.));
#276=CARTESIAN_POINT('',(-6.63965408677388E-015,0.,-3.03750000000316));
#277=CARTESIAN_POINT('',(-4.90000000000002,0.,-3.03750000000316));
#278=CARTESIAN_POINT('',(-1.28785870856518E-014,0.,48.05));
#279=CARTESIAN_POINT('',(-7.9799484770386E-015,0.,0.));
#280=CARTESIAN_POINT('',(-7.93750000000001,0.,0.));
#281=CARTESIAN_POINT('',(-6.63965408677388E-015,0.,-3.03750000000316));
#282=CARTESIAN_POINT('',(-2.02189721826324E-015,0.,-40.85));
#283=CARTESIAN_POINT('',(3.5,0.,-40.85));
#284=CARTESIAN_POINT('',(-2.02189721826324E-015,0.,-40.85));
#285=CARTESIAN_POINT('',(-3.52909398096697E-016,0.,-54.516506));
#286=CARTESIAN_POINT('',(-3.5,0.,-54.516506));
#287=CARTESIAN_POINT('',(-2.75545529808154E-016,0.,-55.15));
#288=CARTESIAN_POINT('',(0.,0.,0.));
#289=CARTESIAN_POINT('',(-2.75545529808154E-016,0.,-55.15));
#290=CARTESIAN_POINT('',(-7.01060116745135E-015,0.,0.));
#291=CARTESIAN_POINT('',(-7.93750000000001,0.,-9.69347309588266E-016));
#292=CARTESIAN_POINT('',(0.,0.,0.));
#293=CARTESIAN_POINT('',(-1.28785870856518E-014,0.,48.05));
#294=CARTESIAN_POINT('',(-6.39950000000003,0.,48.05));
#295=CARTESIAN_POINT('',(6.3995,0.,48.05));
#296=CARTESIAN_POINT('',(-1.26907626872711E-014,0.,46.512));
#297=CARTESIAN_POINT('',(-7.93750000000002,0.,46.512));
#298=CARTESIAN_POINT('',(-1.26907626872711E-014,0.,46.512));
#299=CARTESIAN_POINT('',(-1.28785870856518E-014,0.,48.05));
#300=MECHANICAL_DESIGN_GEOMETRIC_PRESENTATION_REPRESENTATION('',(#25,#26),
#301);
#301=(
GEOMETRIC_REPRESENTATION_CONTEXT(3)
GLOBAL_UNCERTAINTY_ASSIGNED_CONTEXT((#302))
GLOBAL_UNIT_ASSIGNED_CONTEXT((#308,#304,#303))
REPRESENTATION_CONTEXT('PM07B-06400-0625N1','TOP_LEVEL_ASSEMBLY_PART')
);
#302=UNCERTAINTY_MEASURE_WITH_UNIT(LENGTH_MEASURE(2.E-005),#308,
'DISTANCE_ACCURACY_VALUE','Maximum Tolerance applied to model');
#303=(
NAMED_UNIT(*)
SI_UNIT($,.STERADIAN.)
SOLID_ANGLE_UNIT()
);
#304=(
CONVERSION_BASED_UNIT('DEGREE',#306)
NAMED_UNIT(#305)
PLANE_ANGLE_UNIT()
);
#305=DIMENSIONAL_EXPONENTS(0.,0.,0.,0.,0.,0.,0.);
#306=PLANE_ANGLE_MEASURE_WITH_UNIT(PLANE_ANGLE_MEASURE(0.0174532925),#307);
#307=(
NAMED_UNIT(*)
PLANE_ANGLE_UNIT()
SI_UNIT($,.RADIAN.)
);
#308=(
LENGTH_UNIT()
NAMED_UNIT(*)
SI_UNIT(.MILLI.,.METRE.)
);
ENDSEC;
END-ISO-10303-21;
