ISO-10303-21;
HEADER;
/* Generated by software containing ST-Developer
 * from STEP Tools, Inc. (www.steptools.com) 
 */
/* OPTION: using custom schema-name function */

FILE_DESCRIPTION(
/* description */ (''),
/* implementation_level */ '2;1');

FILE_NAME(
/* name */ 'PM07B-03300-16N1.stp',
/* time_stamp */ '2018-03-16T14:54:26+05:00',
/* author */ (''),
/* organization */ (''),
/* preprocessor_version */ 'ST-DEVELOPER v16',
/* originating_system */ 'SIEMENS PLM Software NX 11.0',
/* authorisation */ '');

FILE_SCHEMA (('AUTOMOTIVE_DESIGN { 1 0 10303 214 3 1 1 1 }'));
ENDSEC;

DATA;
#10=CONSTRUCTIVE_GEOMETRY_REPRESENTATION_RELATIONSHIP(
'supplemental geometry','',#32,#11);
#11=CONSTRUCTIVE_GEOMETRY_REPRESENTATION('supplemental geometry',(#193,
#194,#195),#316);
#12=PROPERTY_DEFINITION_REPRESENTATION(#16,#14);
#13=PROPERTY_DEFINITION_REPRESENTATION(#17,#15);
#14=REPRESENTATION('',(#18),#316);
#15=REPRESENTATION('',(#19),#316);
#16=PROPERTY_DEFINITION('pmi validation property','',#23);
#17=PROPERTY_DEFINITION('pmi validation property','',#23);
#18=VALUE_REPRESENTATION_ITEM('number of annotations',COUNT_MEASURE(0.));
#19=VALUE_REPRESENTATION_ITEM('number of views',COUNT_MEASURE(0.));
#20=SHAPE_REPRESENTATION_RELATIONSHIP('None',
'relationship between PM07B-03300-16N1-None and PM07B-03300-16N1-None',
#32,#21);
#21=ADVANCED_BREP_SHAPE_REPRESENTATION('PM07B-03300-16N1-None',(#43,#44),
#316);
#22=SHAPE_DEFINITION_REPRESENTATION(#23,#32);
#23=PRODUCT_DEFINITION_SHAPE('','',#24);
#24=PRODUCT_DEFINITION(' ','',#26,#25);
#25=PRODUCT_DEFINITION_CONTEXT('part definition',#31,'design');
#26=PRODUCT_DEFINITION_FORMATION_WITH_SPECIFIED_SOURCE(' ',' ',#28,
 .NOT_KNOWN.);
#27=PRODUCT_RELATED_PRODUCT_CATEGORY('part','',(#28));
#28=PRODUCT('PM07B-03300-16N1','PM07B-03300-16N1',' ',(#29));
#29=PRODUCT_CONTEXT(' ',#31,'mechanical');
#30=APPLICATION_PROTOCOL_DEFINITION('international standard',
'automotive_design',2010,#31);
#31=APPLICATION_CONTEXT(
'core data for automotive mechanical design processes');
#32=SHAPE_REPRESENTATION('PM07B-03300-16N1-None',(#192),#316);
#33=SURFACE_STYLE_USAGE(.BOTH.,#35);
#34=SURFACE_STYLE_USAGE(.BOTH.,#36);
#35=SURFACE_SIDE_STYLE('',(#37));
#36=SURFACE_SIDE_STYLE('',(#38));
#37=SURFACE_STYLE_FILL_AREA(#39);
#38=SURFACE_STYLE_FILL_AREA(#40);
#39=FILL_AREA_STYLE('',(#41));
#40=FILL_AREA_STYLE('',(#42));
#41=FILL_AREA_STYLE_COLOUR('',#188);
#42=FILL_AREA_STYLE_COLOUR('',#188);
#43=MANIFOLD_SOLID_BREP('NOCUT',#45);
#44=MANIFOLD_SOLID_BREP('NOCUT',#46);
#45=CLOSED_SHELL('',(#59,#60,#61,#62,#63,#64,#65,#66,#67));
#46=CLOSED_SHELL('',(#68,#69,#70,#71));
#47=FACE_OUTER_BOUND('',#107,.T.);
#48=FACE_OUTER_BOUND('',#110,.T.);
#49=FACE_OUTER_BOUND('',#111,.T.);
#50=FACE_OUTER_BOUND('',#112,.T.);
#51=CYLINDRICAL_SURFACE('',#202,5.50000000000001);
#52=CYLINDRICAL_SURFACE('',#206,5.3);
#53=CYLINDRICAL_SURFACE('',#211,3.5);
#54=CYLINDRICAL_SURFACE('',#219,8.);
#55=CONICAL_SURFACE('',#200,5.17500000000001,44.9999999999994);
#56=CONICAL_SURFACE('',#204,5.50000000000001,44.9999999999994);
#57=CONICAL_SURFACE('',#208,5.30000000000001,44.9999999999701);
#58=CONICAL_SURFACE('',#218,8.,44.9999999999998);
#59=ADVANCED_FACE('',(#77,#78),#72,.T.);
#60=ADVANCED_FACE('',(#79,#80),#55,.T.);
#61=ADVANCED_FACE('',(#81,#82),#51,.T.);
#62=ADVANCED_FACE('',(#83,#84),#56,.T.);
#63=ADVANCED_FACE('',(#85,#86),#52,.T.);
#64=ADVANCED_FACE('',(#87,#88),#57,.T.);
#65=ADVANCED_FACE('',(#47),#73,.F.);
#66=ADVANCED_FACE('',(#89,#90),#53,.F.);
#67=ADVANCED_FACE('',(#48),#74,.T.);
#68=ADVANCED_FACE('',(#49),#75,.T.);
#69=ADVANCED_FACE('',(#50),#76,.T.);
#70=ADVANCED_FACE('',(#91,#92),#58,.T.);
#71=ADVANCED_FACE('',(#93,#94),#54,.T.);
#72=PLANE('',#198);
#73=PLANE('',#209);
#74=PLANE('',#212);
#75=PLANE('',#214);
#76=PLANE('',#216);
#77=FACE_BOUND('',#95,.T.);
#78=FACE_BOUND('',#96,.T.);
#79=FACE_BOUND('',#97,.T.);
#80=FACE_BOUND('',#98,.T.);
#81=FACE_BOUND('',#99,.T.);
#82=FACE_BOUND('',#100,.T.);
#83=FACE_BOUND('',#101,.T.);
#84=FACE_BOUND('',#102,.T.);
#85=FACE_BOUND('',#103,.T.);
#86=FACE_BOUND('',#104,.T.);
#87=FACE_BOUND('',#105,.T.);
#88=FACE_BOUND('',#106,.T.);
#89=FACE_BOUND('',#108,.T.);
#90=FACE_BOUND('',#109,.T.);
#91=FACE_BOUND('',#113,.T.);
#92=FACE_BOUND('',#114,.T.);
#93=FACE_BOUND('',#115,.T.);
#94=FACE_BOUND('',#116,.T.);
#95=EDGE_LOOP('',(#117));
#96=EDGE_LOOP('',(#118));
#97=EDGE_LOOP('',(#119));
#98=EDGE_LOOP('',(#120));
#99=EDGE_LOOP('',(#121));
#100=EDGE_LOOP('',(#122));
#101=EDGE_LOOP('',(#123));
#102=EDGE_LOOP('',(#124));
#103=EDGE_LOOP('',(#125));
#104=EDGE_LOOP('',(#126));
#105=EDGE_LOOP('',(#127));
#106=EDGE_LOOP('',(#128));
#107=EDGE_LOOP('',(#129));
#108=EDGE_LOOP('',(#130));
#109=EDGE_LOOP('',(#131));
#110=EDGE_LOOP('',(#132));
#111=EDGE_LOOP('',(#133));
#112=EDGE_LOOP('',(#134));
#113=EDGE_LOOP('',(#135));
#114=EDGE_LOOP('',(#136));
#115=EDGE_LOOP('',(#137));
#116=EDGE_LOOP('',(#138));
#117=ORIENTED_EDGE('',*,*,#150,.F.);
#118=ORIENTED_EDGE('',*,*,#151,.T.);
#119=ORIENTED_EDGE('',*,*,#152,.T.);
#120=ORIENTED_EDGE('',*,*,#151,.F.);
#121=ORIENTED_EDGE('',*,*,#153,.T.);
#122=ORIENTED_EDGE('',*,*,#152,.F.);
#123=ORIENTED_EDGE('',*,*,#154,.T.);
#124=ORIENTED_EDGE('',*,*,#153,.F.);
#125=ORIENTED_EDGE('',*,*,#155,.T.);
#126=ORIENTED_EDGE('',*,*,#154,.F.);
#127=ORIENTED_EDGE('',*,*,#156,.F.);
#128=ORIENTED_EDGE('',*,*,#155,.F.);
#129=ORIENTED_EDGE('',*,*,#156,.T.);
#130=ORIENTED_EDGE('',*,*,#157,.T.);
#131=ORIENTED_EDGE('',*,*,#150,.T.);
#132=ORIENTED_EDGE('',*,*,#157,.F.);
#133=ORIENTED_EDGE('',*,*,#158,.T.);
#134=ORIENTED_EDGE('',*,*,#159,.F.);
#135=ORIENTED_EDGE('',*,*,#159,.T.);
#136=ORIENTED_EDGE('',*,*,#160,.F.);
#137=ORIENTED_EDGE('',*,*,#160,.T.);
#138=ORIENTED_EDGE('',*,*,#158,.F.);
#139=VERTEX_POINT('',#281);
#140=VERTEX_POINT('',#283);
#141=VERTEX_POINT('',#286);
#142=VERTEX_POINT('',#289);
#143=VERTEX_POINT('',#292);
#144=VERTEX_POINT('',#295);
#145=VERTEX_POINT('',#298);
#146=VERTEX_POINT('',#302);
#147=VERTEX_POINT('',#306);
#148=VERTEX_POINT('',#309);
#149=VERTEX_POINT('',#312);
#150=EDGE_CURVE('',#139,#139,#161,.T.);
#151=EDGE_CURVE('',#140,#140,#162,.T.);
#152=EDGE_CURVE('',#141,#141,#163,.T.);
#153=EDGE_CURVE('',#142,#142,#164,.T.);
#154=EDGE_CURVE('',#143,#143,#165,.T.);
#155=EDGE_CURVE('',#144,#144,#166,.T.);
#156=EDGE_CURVE('',#145,#145,#167,.T.);
#157=EDGE_CURVE('',#146,#146,#168,.T.);
#158=EDGE_CURVE('',#147,#147,#169,.T.);
#159=EDGE_CURVE('',#148,#148,#170,.T.);
#160=EDGE_CURVE('',#149,#149,#171,.T.);
#161=CIRCLE('',#196,3.5);
#162=CIRCLE('',#197,5.17500000000001);
#163=CIRCLE('',#199,5.5);
#164=CIRCLE('',#201,5.50000000000001);
#165=CIRCLE('',#203,5.3);
#166=CIRCLE('',#205,5.30000000000001);
#167=CIRCLE('',#207,8.);
#168=CIRCLE('',#210,3.5);
#169=CIRCLE('',#213,7.99999999999999);
#170=CIRCLE('',#215,6.96200000000001);
#171=CIRCLE('',#217,8.);
#172=PRESENTATION_LAYER_ASSIGNMENT('1','Layer 1',(#193,#194,#195,#44));
#173=PRESENTATION_LAYER_ASSIGNMENT('2','Layer 2',(#43));
#174=STYLED_ITEM('',(#179),#193);
#175=STYLED_ITEM('',(#180),#194);
#176=STYLED_ITEM('',(#181),#195);
#177=STYLED_ITEM('',(#182),#43);
#178=STYLED_ITEM('',(#183),#44);
#179=PRESENTATION_STYLE_ASSIGNMENT((#184));
#180=PRESENTATION_STYLE_ASSIGNMENT((#185));
#181=PRESENTATION_STYLE_ASSIGNMENT((#186));
#182=PRESENTATION_STYLE_ASSIGNMENT((#33));
#183=PRESENTATION_STYLE_ASSIGNMENT((#34));
#184=CURVE_STYLE('',#189,POSITIVE_LENGTH_MEASURE(0.18),#187);
#185=CURVE_STYLE('',#190,POSITIVE_LENGTH_MEASURE(0.18),#187);
#186=CURVE_STYLE('',#191,POSITIVE_LENGTH_MEASURE(0.18),#187);
#187=COLOUR_RGB('Medium Maroon',0.6,0.4,0.4);
#188=COLOUR_RGB('Medium Gray',0.490196078431373,0.490196078431373,0.490196078431373);
#189=DRAUGHTING_PRE_DEFINED_CURVE_FONT('continuous');
#190=DRAUGHTING_PRE_DEFINED_CURVE_FONT('continuous');
#191=DRAUGHTING_PRE_DEFINED_CURVE_FONT('continuous');
#192=AXIS2_PLACEMENT_3D('',#276,#220,#221);
#193=AXIS2_PLACEMENT_3D('MCS',#277,#222,#223);
#194=AXIS2_PLACEMENT_3D('PCS',#278,#224,#225);
#195=AXIS2_PLACEMENT_3D('CSW',#279,#226,#227);
#196=AXIS2_PLACEMENT_3D('',#280,#228,#229);
#197=AXIS2_PLACEMENT_3D('',#282,#230,#231);
#198=AXIS2_PLACEMENT_3D('',#284,#232,#233);
#199=AXIS2_PLACEMENT_3D('',#285,#234,#235);
#200=AXIS2_PLACEMENT_3D('',#287,#236,#237);
#201=AXIS2_PLACEMENT_3D('',#288,#238,#239);
#202=AXIS2_PLACEMENT_3D('',#290,#240,#241);
#203=AXIS2_PLACEMENT_3D('',#291,#242,#243);
#204=AXIS2_PLACEMENT_3D('',#293,#244,#245);
#205=AXIS2_PLACEMENT_3D('',#294,#246,#247);
#206=AXIS2_PLACEMENT_3D('',#296,#248,#249);
#207=AXIS2_PLACEMENT_3D('',#297,#250,#251);
#208=AXIS2_PLACEMENT_3D('',#299,#252,#253);
#209=AXIS2_PLACEMENT_3D('',#300,#254,#255);
#210=AXIS2_PLACEMENT_3D('',#301,#256,#257);
#211=AXIS2_PLACEMENT_3D('',#303,#258,#259);
#212=AXIS2_PLACEMENT_3D('',#304,#260,#261);
#213=AXIS2_PLACEMENT_3D('',#305,#262,#263);
#214=AXIS2_PLACEMENT_3D('',#307,#264,#265);
#215=AXIS2_PLACEMENT_3D('',#308,#266,#267);
#216=AXIS2_PLACEMENT_3D('',#310,#268,#269);
#217=AXIS2_PLACEMENT_3D('',#311,#270,#271);
#218=AXIS2_PLACEMENT_3D('',#313,#272,#273);
#219=AXIS2_PLACEMENT_3D('',#314,#274,#275);
#220=DIRECTION('',(0.,0.,1.));
#221=DIRECTION('',(1.,0.,0.));
#222=DIRECTION('',(0.,0.,1.));
#223=DIRECTION('',(1.,0.,0.));
#224=DIRECTION('',(0.,0.,1.));
#225=DIRECTION('',(1.,0.,0.));
#226=DIRECTION('',(0.,0.,1.));
#227=DIRECTION('',(1.,0.,0.));
#228=DIRECTION('',(0.,0.,-1.));
#229=DIRECTION('',(1.,1.22464679914735E-16,0.));
#230=DIRECTION('',(1.24199966060028E-16,0.,-1.));
#231=DIRECTION('',(-1.,0.,0.));
#232=DIRECTION('',(1.24199966060028E-16,0.,-1.));
#233=DIRECTION('',(1.,0.,1.2490009027033E-16));
#234=DIRECTION('',(1.24199966060028E-16,0.,-1.));
#235=DIRECTION('',(-1.,0.,0.));
#236=DIRECTION('',(-1.24199966060028E-16,0.,1.));
#237=DIRECTION('',(-1.,0.,-1.31160229984072E-16));
#238=DIRECTION('',(1.24199966060028E-16,0.,-1.));
#239=DIRECTION('',(-1.,0.,0.));
#240=DIRECTION('',(1.24199966060028E-16,0.,-1.));
#241=DIRECTION('',(1.,0.,0.));
#242=DIRECTION('',(1.24199966060028E-16,0.,-1.));
#243=DIRECTION('',(-1.,0.,0.));
#244=DIRECTION('',(1.24199966060028E-16,0.,-1.));
#245=DIRECTION('',(1.,0.,2.12203866280608E-16));
#246=DIRECTION('',(1.24199966060028E-16,0.,-1.));
#247=DIRECTION('',(-1.,0.,-1.63653158111019E-16));
#248=DIRECTION('',(1.24199966060028E-16,0.,-1.));
#249=DIRECTION('',(1.,0.,0.));
#250=DIRECTION('',(0.,0.,1.));
#251=DIRECTION('',(-1.,0.,0.));
#252=DIRECTION('',(-1.24199966060028E-16,0.,1.));
#253=DIRECTION('',(-1.,0.,-1.11731169869308E-16));
#254=DIRECTION('',(0.,0.,-1.));
#255=DIRECTION('',(1.,0.,0.));
#256=DIRECTION('',(0.,0.,1.));
#257=DIRECTION('',(1.,1.22464679914735E-16,0.));
#258=DIRECTION('',(0.,0.,-1.));
#259=DIRECTION('',(-1.,0.,0.));
#260=DIRECTION('',(0.,0.,-1.));
#261=DIRECTION('',(-1.,0.,0.));
#262=DIRECTION('',(1.24199966060028E-16,0.,-1.));
#263=DIRECTION('',(-1.,0.,-1.24199966060028E-16));
#264=DIRECTION('',(0.,0.,-1.));
#265=DIRECTION('',(1.,0.,0.));
#266=DIRECTION('',(1.24199966060028E-16,0.,-1.));
#267=DIRECTION('',(-1.,0.,0.));
#268=DIRECTION('',(-1.24199966060028E-16,0.,1.));
#269=DIRECTION('',(-1.,0.,-1.2490009027033E-16));
#270=DIRECTION('',(1.24199966060028E-16,0.,-1.));
#271=DIRECTION('',(-1.,0.,0.));
#272=DIRECTION('',(1.24199966060028E-16,0.,-1.));
#273=DIRECTION('',(1.,0.,5.50705865389467E-17));
#274=DIRECTION('',(1.24199966060028E-16,0.,-1.));
#275=DIRECTION('',(1.,0.,0.));
#276=CARTESIAN_POINT('',(0.,0.,0.));
#277=CARTESIAN_POINT('',(0.,0.,0.));
#278=CARTESIAN_POINT('',(-7.105427357601E-15,0.,48.));
#279=CARTESIAN_POINT('',(0.,0.,-24.));
#280=CARTESIAN_POINT('',(0.,0.,-24.));
#281=CARTESIAN_POINT('',(3.5,4.28626379701574E-16,-24.));
#282=CARTESIAN_POINT('',(1.83697019872103E-15,0.,-24.));
#283=CARTESIAN_POINT('',(-5.175,0.,-24.));
#284=CARTESIAN_POINT('',(1.77635683940025E-15,0.,-24.));
#285=CARTESIAN_POINT('',(1.79660520975152E-15,0.,-23.675));
#286=CARTESIAN_POINT('',(-5.5,0.,-23.675));
#287=CARTESIAN_POINT('',(1.83697019872103E-15,0.,-24.));
#288=CARTESIAN_POINT('',(9.81706738806357E-17,0.,-10.));
#289=CARTESIAN_POINT('',(-5.50000000000001,0.,-10.));
#290=CARTESIAN_POINT('',(-7.105427357601E-15,0.,48.));
#291=CARTESIAN_POINT('',(7.33306806686292E-17,0.,-9.8));
#292=CARTESIAN_POINT('',(-5.3,0.,-9.8));
#293=CARTESIAN_POINT('',(9.81706738806357E-17,0.,-10.));
#294=CARTESIAN_POINT('',(-8.08489078357222E-16,0.,-2.70000000000281));
#295=CARTESIAN_POINT('',(-5.30000000000001,0.,-2.70000000000281));
#296=CARTESIAN_POINT('',(-7.105427357601E-15,0.,48.));
#297=CARTESIAN_POINT('',(-2.13742871519883E-15,0.,0.));
#298=CARTESIAN_POINT('',(-8.,0.,0.));
#299=CARTESIAN_POINT('',(-8.08489078357222E-16,0.,-2.70000000000281));
#300=CARTESIAN_POINT('',(0.,0.,0.));
#301=CARTESIAN_POINT('',(0.,0.,-12.5));
#302=CARTESIAN_POINT('',(3.5,4.28626379701574E-16,-12.5));
#303=CARTESIAN_POINT('',(0.,0.,-12.5));
#304=CARTESIAN_POINT('',(0.,0.,-12.5));
#305=CARTESIAN_POINT('',(-1.14382898671965E-15,0.,0.));
#306=CARTESIAN_POINT('',(-8.,0.,-9.93599728480225E-16));
#307=CARTESIAN_POINT('',(0.,0.,0.));
#308=CARTESIAN_POINT('',(-7.105427357601E-15,0.,48.));
#309=CARTESIAN_POINT('',(-6.96200000000002,0.,48.));
#310=CARTESIAN_POINT('',(6.96200000000001,0.,48.));
#311=CARTESIAN_POINT('',(-6.97650779283069E-15,0.,46.962));
#312=CARTESIAN_POINT('',(-8.00000000000001,0.,46.962));
#313=CARTESIAN_POINT('',(-6.97650779283069E-15,0.,46.962));
#314=CARTESIAN_POINT('',(-7.105427357601E-15,0.,48.));
#315=MECHANICAL_DESIGN_GEOMETRIC_PRESENTATION_REPRESENTATION('',(#174,#175,
#176,#177,#178),#316);
#316=(
GEOMETRIC_REPRESENTATION_CONTEXT(3)
GLOBAL_UNCERTAINTY_ASSIGNED_CONTEXT((#317))
GLOBAL_UNIT_ASSIGNED_CONTEXT((#323,#319,#318))
REPRESENTATION_CONTEXT('PM07B-03300-16N1','TOP_LEVEL_ASSEMBLY_PART')
);
#317=UNCERTAINTY_MEASURE_WITH_UNIT(LENGTH_MEASURE(2.E-5),#323,
'DISTANCE_ACCURACY_VALUE','Maximum Tolerance applied to model');
#318=(
NAMED_UNIT(*)
SI_UNIT($,.STERADIAN.)
SOLID_ANGLE_UNIT()
);
#319=(
CONVERSION_BASED_UNIT('DEGREE',#321)
NAMED_UNIT(#320)
PLANE_ANGLE_UNIT()
);
#320=DIMENSIONAL_EXPONENTS(0.,0.,0.,0.,0.,0.,0.);
#321=PLANE_ANGLE_MEASURE_WITH_UNIT(PLANE_ANGLE_MEASURE(0.0174532925),#322);
#322=(
NAMED_UNIT(*)
PLANE_ANGLE_UNIT()
SI_UNIT($,.RADIAN.)
);
#323=(
LENGTH_UNIT()
NAMED_UNIT(*)
SI_UNIT(.MILLI.,.METRE.)
);
ENDSEC;
END-ISO-10303-21;
