ISO-10303-21;
HEADER;
/* Generated by software containing ST-Developer
 * from STEP Tools, Inc. (www.steptools.com) 
 */
/* OPTION: using custom schema-name function */

FILE_DESCRIPTION(
/* description */ (''),
/* implementation_level */ '2;1');

FILE_NAME(
/* name */ 'PM06BHM-05700-12N1.stp',
/* time_stamp */ '2018-03-16T14:54:26+05:00',
/* author */ (''),
/* organization */ (''),
/* preprocessor_version */ 'ST-DEVELOPER v16',
/* originating_system */ 'SIEMENS PLM Software NX 11.0',
/* authorisation */ '');

FILE_SCHEMA (('AUTOMOTIVE_DESIGN { 1 0 10303 214 3 1 1 1 }'));
ENDSEC;

DATA;
#10=CONSTRUCTIVE_GEOMETRY_REPRESENTATION_RELATIONSHIP(
'supplemental geometry','',#32,#11);
#11=CONSTRUCTIVE_GEOMETRY_REPRESENTATION('supplemental geometry',(#204,
#205,#206),#336);
#12=PROPERTY_DEFINITION_REPRESENTATION(#16,#14);
#13=PROPERTY_DEFINITION_REPRESENTATION(#17,#15);
#14=REPRESENTATION('',(#18),#336);
#15=REPRESENTATION('',(#19),#336);
#16=PROPERTY_DEFINITION('pmi validation property','',#23);
#17=PROPERTY_DEFINITION('pmi validation property','',#23);
#18=VALUE_REPRESENTATION_ITEM('number of annotations',COUNT_MEASURE(0.));
#19=VALUE_REPRESENTATION_ITEM('number of views',COUNT_MEASURE(0.));
#20=SHAPE_REPRESENTATION_RELATIONSHIP('None',
'relationship between PM06BHM-05700-12N1-None and PM06BHM-05700-12N1-N
one',#32,#21);
#21=ADVANCED_BREP_SHAPE_REPRESENTATION('PM06BHM-05700-12N1-None',(#43,#44),
#336);
#22=SHAPE_DEFINITION_REPRESENTATION(#23,#32);
#23=PRODUCT_DEFINITION_SHAPE('','',#24);
#24=PRODUCT_DEFINITION(' ','',#26,#25);
#25=PRODUCT_DEFINITION_CONTEXT('part definition',#31,'design');
#26=PRODUCT_DEFINITION_FORMATION_WITH_SPECIFIED_SOURCE(' ',' ',#28,
 .NOT_KNOWN.);
#27=PRODUCT_RELATED_PRODUCT_CATEGORY('part','',(#28));
#28=PRODUCT('PM06BHM-05700-12N1','PM06BHM-05700-12N1',' ',(#29));
#29=PRODUCT_CONTEXT(' ',#31,'mechanical');
#30=APPLICATION_PROTOCOL_DEFINITION('international standard',
'automotive_design',2010,#31);
#31=APPLICATION_CONTEXT(
'core data for automotive mechanical design processes');
#32=SHAPE_REPRESENTATION('PM06BHM-05700-12N1-None',(#203),#336);
#33=SURFACE_STYLE_USAGE(.BOTH.,#35);
#34=SURFACE_STYLE_USAGE(.BOTH.,#36);
#35=SURFACE_SIDE_STYLE('',(#37));
#36=SURFACE_SIDE_STYLE('',(#38));
#37=SURFACE_STYLE_FILL_AREA(#39);
#38=SURFACE_STYLE_FILL_AREA(#40);
#39=FILL_AREA_STYLE('',(#41));
#40=FILL_AREA_STYLE('',(#42));
#41=FILL_AREA_STYLE_COLOUR('',#199);
#42=FILL_AREA_STYLE_COLOUR('',#199);
#43=MANIFOLD_SOLID_BREP('NOCUT',#45);
#44=MANIFOLD_SOLID_BREP('NOCUT',#46);
#45=CLOSED_SHELL('',(#60,#61,#62,#63,#64,#65,#66,#67,#68,#69));
#46=CLOSED_SHELL('',(#70,#71,#72,#73));
#47=FACE_OUTER_BOUND('',#111,.T.);
#48=FACE_OUTER_BOUND('',#114,.T.);
#49=FACE_OUTER_BOUND('',#117,.T.);
#50=FACE_OUTER_BOUND('',#118,.T.);
#51=CYLINDRICAL_SURFACE('',#213,4.7);
#52=CYLINDRICAL_SURFACE('',#217,4.24950000000001);
#53=CYLINDRICAL_SURFACE('',#223,3.);
#54=CYLINDRICAL_SURFACE('',#232,5.99999999999999);
#55=CONICAL_SURFACE('',#211,4.22499999999999,45.0000000000005);
#56=CONICAL_SURFACE('',#215,4.7,45.0000000000004);
#57=CONICAL_SURFACE('',#219,4.24950000000001,44.9999999999701);
#58=CONICAL_SURFACE('',#225,3.633494,45.0000000000001);
#59=CONICAL_SURFACE('',#231,6.,45.);
#60=ADVANCED_FACE('',(#79,#80),#74,.T.);
#61=ADVANCED_FACE('',(#81,#82),#55,.T.);
#62=ADVANCED_FACE('',(#83,#84),#51,.T.);
#63=ADVANCED_FACE('',(#85,#86),#56,.T.);
#64=ADVANCED_FACE('',(#87,#88),#52,.T.);
#65=ADVANCED_FACE('',(#89,#90),#57,.T.);
#66=ADVANCED_FACE('',(#47),#75,.F.);
#67=ADVANCED_FACE('',(#91,#92),#53,.F.);
#68=ADVANCED_FACE('',(#48),#76,.F.);
#69=ADVANCED_FACE('',(#93,#94),#58,.F.);
#70=ADVANCED_FACE('',(#49),#77,.T.);
#71=ADVANCED_FACE('',(#50),#78,.T.);
#72=ADVANCED_FACE('',(#95,#96),#59,.T.);
#73=ADVANCED_FACE('',(#97,#98),#54,.T.);
#74=PLANE('',#209);
#75=PLANE('',#221);
#76=PLANE('',#224);
#77=PLANE('',#227);
#78=PLANE('',#229);
#79=FACE_BOUND('',#99,.T.);
#80=FACE_BOUND('',#100,.T.);
#81=FACE_BOUND('',#101,.T.);
#82=FACE_BOUND('',#102,.T.);
#83=FACE_BOUND('',#103,.T.);
#84=FACE_BOUND('',#104,.T.);
#85=FACE_BOUND('',#105,.T.);
#86=FACE_BOUND('',#106,.T.);
#87=FACE_BOUND('',#107,.T.);
#88=FACE_BOUND('',#108,.T.);
#89=FACE_BOUND('',#109,.T.);
#90=FACE_BOUND('',#110,.T.);
#91=FACE_BOUND('',#112,.T.);
#92=FACE_BOUND('',#113,.T.);
#93=FACE_BOUND('',#115,.T.);
#94=FACE_BOUND('',#116,.T.);
#95=FACE_BOUND('',#119,.T.);
#96=FACE_BOUND('',#120,.T.);
#97=FACE_BOUND('',#121,.T.);
#98=FACE_BOUND('',#122,.T.);
#99=EDGE_LOOP('',(#123));
#100=EDGE_LOOP('',(#124));
#101=EDGE_LOOP('',(#125));
#102=EDGE_LOOP('',(#126));
#103=EDGE_LOOP('',(#127));
#104=EDGE_LOOP('',(#128));
#105=EDGE_LOOP('',(#129));
#106=EDGE_LOOP('',(#130));
#107=EDGE_LOOP('',(#131));
#108=EDGE_LOOP('',(#132));
#109=EDGE_LOOP('',(#133));
#110=EDGE_LOOP('',(#134));
#111=EDGE_LOOP('',(#135));
#112=EDGE_LOOP('',(#136));
#113=EDGE_LOOP('',(#137));
#114=EDGE_LOOP('',(#138));
#115=EDGE_LOOP('',(#139));
#116=EDGE_LOOP('',(#140));
#117=EDGE_LOOP('',(#141));
#118=EDGE_LOOP('',(#142));
#119=EDGE_LOOP('',(#143));
#120=EDGE_LOOP('',(#144));
#121=EDGE_LOOP('',(#145));
#122=EDGE_LOOP('',(#146));
#123=ORIENTED_EDGE('',*,*,#159,.T.);
#124=ORIENTED_EDGE('',*,*,#160,.T.);
#125=ORIENTED_EDGE('',*,*,#161,.T.);
#126=ORIENTED_EDGE('',*,*,#160,.F.);
#127=ORIENTED_EDGE('',*,*,#162,.T.);
#128=ORIENTED_EDGE('',*,*,#161,.F.);
#129=ORIENTED_EDGE('',*,*,#163,.T.);
#130=ORIENTED_EDGE('',*,*,#162,.F.);
#131=ORIENTED_EDGE('',*,*,#164,.T.);
#132=ORIENTED_EDGE('',*,*,#163,.F.);
#133=ORIENTED_EDGE('',*,*,#165,.F.);
#134=ORIENTED_EDGE('',*,*,#164,.F.);
#135=ORIENTED_EDGE('',*,*,#166,.F.);
#136=ORIENTED_EDGE('',*,*,#167,.T.);
#137=ORIENTED_EDGE('',*,*,#166,.T.);
#138=ORIENTED_EDGE('',*,*,#165,.T.);
#139=ORIENTED_EDGE('',*,*,#167,.F.);
#140=ORIENTED_EDGE('',*,*,#159,.F.);
#141=ORIENTED_EDGE('',*,*,#168,.T.);
#142=ORIENTED_EDGE('',*,*,#169,.F.);
#143=ORIENTED_EDGE('',*,*,#169,.T.);
#144=ORIENTED_EDGE('',*,*,#170,.F.);
#145=ORIENTED_EDGE('',*,*,#170,.T.);
#146=ORIENTED_EDGE('',*,*,#168,.F.);
#147=VERTEX_POINT('',#298);
#148=VERTEX_POINT('',#300);
#149=VERTEX_POINT('',#303);
#150=VERTEX_POINT('',#306);
#151=VERTEX_POINT('',#309);
#152=VERTEX_POINT('',#312);
#153=VERTEX_POINT('',#315);
#154=VERTEX_POINT('',#318);
#155=VERTEX_POINT('',#321);
#156=VERTEX_POINT('',#326);
#157=VERTEX_POINT('',#329);
#158=VERTEX_POINT('',#332);
#159=EDGE_CURVE('',#147,#147,#171,.T.);
#160=EDGE_CURVE('',#148,#148,#172,.T.);
#161=EDGE_CURVE('',#149,#149,#173,.T.);
#162=EDGE_CURVE('',#150,#150,#174,.T.);
#163=EDGE_CURVE('',#151,#151,#175,.T.);
#164=EDGE_CURVE('',#152,#152,#176,.T.);
#165=EDGE_CURVE('',#153,#153,#177,.T.);
#166=EDGE_CURVE('',#154,#154,#178,.T.);
#167=EDGE_CURVE('',#155,#155,#179,.T.);
#168=EDGE_CURVE('',#156,#156,#180,.T.);
#169=EDGE_CURVE('',#157,#157,#181,.T.);
#170=EDGE_CURVE('',#158,#158,#182,.T.);
#171=CIRCLE('',#207,3.633494);
#172=CIRCLE('',#208,4.22499999999999);
#173=CIRCLE('',#210,4.7);
#174=CIRCLE('',#212,4.7);
#175=CIRCLE('',#214,4.2495);
#176=CIRCLE('',#216,4.24950000000001);
#177=CIRCLE('',#218,5.99999999999999);
#178=CIRCLE('',#220,3.);
#179=CIRCLE('',#222,3.);
#180=CIRCLE('',#226,5.99999999999999);
#181=CIRCLE('',#228,4.85);
#182=CIRCLE('',#230,6.);
#183=PRESENTATION_LAYER_ASSIGNMENT('1','Layer 1',(#204,#205,#206,#44));
#184=PRESENTATION_LAYER_ASSIGNMENT('2','Layer 2',(#43));
#185=STYLED_ITEM('',(#190),#204);
#186=STYLED_ITEM('',(#191),#205);
#187=STYLED_ITEM('',(#192),#206);
#188=STYLED_ITEM('',(#193),#43);
#189=STYLED_ITEM('',(#194),#44);
#190=PRESENTATION_STYLE_ASSIGNMENT((#195));
#191=PRESENTATION_STYLE_ASSIGNMENT((#196));
#192=PRESENTATION_STYLE_ASSIGNMENT((#197));
#193=PRESENTATION_STYLE_ASSIGNMENT((#33));
#194=PRESENTATION_STYLE_ASSIGNMENT((#34));
#195=CURVE_STYLE('',#200,POSITIVE_LENGTH_MEASURE(0.18),#198);
#196=CURVE_STYLE('',#201,POSITIVE_LENGTH_MEASURE(0.18),#198);
#197=CURVE_STYLE('',#202,POSITIVE_LENGTH_MEASURE(0.18),#198);
#198=COLOUR_RGB('Strong Stone',0.576470588235294,0.54508278019379,0.392156862745098);
#199=COLOUR_RGB('Medium Gray',0.490196078431373,0.490196078431373,0.490196078431373);
#200=DRAUGHTING_PRE_DEFINED_CURVE_FONT('continuous');
#201=DRAUGHTING_PRE_DEFINED_CURVE_FONT('continuous');
#202=DRAUGHTING_PRE_DEFINED_CURVE_FONT('continuous');
#203=AXIS2_PLACEMENT_3D('',#293,#233,#234);
#204=AXIS2_PLACEMENT_3D('MCS',#294,#235,#236);
#205=AXIS2_PLACEMENT_3D('PCS',#295,#237,#238);
#206=AXIS2_PLACEMENT_3D('CSW',#296,#239,#240);
#207=AXIS2_PLACEMENT_3D('',#297,#241,#242);
#208=AXIS2_PLACEMENT_3D('',#299,#243,#244);
#209=AXIS2_PLACEMENT_3D('',#301,#245,#246);
#210=AXIS2_PLACEMENT_3D('',#302,#247,#248);
#211=AXIS2_PLACEMENT_3D('',#304,#249,#250);
#212=AXIS2_PLACEMENT_3D('',#305,#251,#252);
#213=AXIS2_PLACEMENT_3D('',#307,#253,#254);
#214=AXIS2_PLACEMENT_3D('',#308,#255,#256);
#215=AXIS2_PLACEMENT_3D('',#310,#257,#258);
#216=AXIS2_PLACEMENT_3D('',#311,#259,#260);
#217=AXIS2_PLACEMENT_3D('',#313,#261,#262);
#218=AXIS2_PLACEMENT_3D('',#314,#263,#264);
#219=AXIS2_PLACEMENT_3D('',#316,#265,#266);
#220=AXIS2_PLACEMENT_3D('',#317,#267,#268);
#221=AXIS2_PLACEMENT_3D('',#319,#269,#270);
#222=AXIS2_PLACEMENT_3D('',#320,#271,#272);
#223=AXIS2_PLACEMENT_3D('',#322,#273,#274);
#224=AXIS2_PLACEMENT_3D('',#323,#275,#276);
#225=AXIS2_PLACEMENT_3D('',#324,#277,#278);
#226=AXIS2_PLACEMENT_3D('',#325,#279,#280);
#227=AXIS2_PLACEMENT_3D('',#327,#281,#282);
#228=AXIS2_PLACEMENT_3D('',#328,#283,#284);
#229=AXIS2_PLACEMENT_3D('',#330,#285,#286);
#230=AXIS2_PLACEMENT_3D('',#331,#287,#288);
#231=AXIS2_PLACEMENT_3D('',#333,#289,#290);
#232=AXIS2_PLACEMENT_3D('',#334,#291,#292);
#233=DIRECTION('',(0.,0.,1.));
#234=DIRECTION('',(1.,0.,0.));
#235=DIRECTION('',(0.,0.,1.));
#236=DIRECTION('',(1.,0.,0.));
#237=DIRECTION('',(0.,0.,1.));
#238=DIRECTION('',(1.,0.,0.));
#239=DIRECTION('',(0.,0.,1.));
#240=DIRECTION('',(1.,0.,0.));
#241=DIRECTION('',(-4.43177642899628E-17,0.,1.));
#242=DIRECTION('',(-1.,0.,0.));
#243=DIRECTION('',(4.43177642899628E-17,0.,-1.));
#244=DIRECTION('',(-1.,0.,0.));
#245=DIRECTION('',(4.43177642899628E-17,0.,-1.));
#246=DIRECTION('',(1.,0.,4.16333634234434E-17));
#247=DIRECTION('',(4.43177642899628E-17,0.,-1.));
#248=DIRECTION('',(-1.,0.,0.));
#249=DIRECTION('',(-4.43177642899628E-17,0.,1.));
#250=DIRECTION('',(-1.,0.,-4.14582025178049E-17));
#251=DIRECTION('',(4.43177642899628E-17,0.,-1.));
#252=DIRECTION('',(-1.,0.,0.));
#253=DIRECTION('',(4.43177642899628E-17,0.,-1.));
#254=DIRECTION('',(1.,0.,0.));
#255=DIRECTION('',(4.43177642899628E-17,0.,-1.));
#256=DIRECTION('',(-1.,0.,0.));
#257=DIRECTION('',(4.43177642899628E-17,0.,-1.));
#258=DIRECTION('',(1.,0.,7.59707703224629E-17));
#259=DIRECTION('',(4.43177642899628E-17,0.,-1.));
#260=DIRECTION('',(-1.,0.,-5.10272819148371E-17));
#261=DIRECTION('',(4.43177642899628E-17,0.,-1.));
#262=DIRECTION('',(1.,0.,0.));
#263=DIRECTION('',(0.,0.,1.));
#264=DIRECTION('',(-1.,0.,0.));
#265=DIRECTION('',(-4.43177642899628E-17,0.,1.));
#266=DIRECTION('',(-1.,0.,4.53438027546327E-17));
#267=DIRECTION('',(-9.41451388593058E-17,0.,1.));
#268=DIRECTION('',(1.,0.,0.));
#269=DIRECTION('',(-9.41451388593058E-17,0.,1.));
#270=DIRECTION('',(-1.,0.,-9.71445146547012E-17));
#271=DIRECTION('',(9.41451388593058E-17,0.,-1.));
#272=DIRECTION('',(-1.,0.,0.));
#273=DIRECTION('',(-9.41451388593058E-17,0.,1.));
#274=DIRECTION('',(-1.,0.,0.));
#275=DIRECTION('',(0.,0.,-1.));
#276=DIRECTION('',(1.,0.,0.));
#277=DIRECTION('',(9.41451388593058E-17,0.,-1.));
#278=DIRECTION('',(1.,0.,-4.14826365125706E-17));
#279=DIRECTION('',(4.43177642899628E-17,0.,-1.));
#280=DIRECTION('',(-1.,0.,-4.43177642899628E-17));
#281=DIRECTION('',(0.,0.,-1.));
#282=DIRECTION('',(1.,0.,0.));
#283=DIRECTION('',(4.43177642899628E-17,0.,-1.));
#284=DIRECTION('',(-1.,0.,0.));
#285=DIRECTION('',(-4.43177642899628E-17,0.,1.));
#286=DIRECTION('',(-1.,0.,-4.16333634234434E-17));
#287=DIRECTION('',(4.43177642899628E-17,0.,-1.));
#288=DIRECTION('',(-1.,0.,0.));
#289=DIRECTION('',(4.43177642899628E-17,0.,-1.));
#290=DIRECTION('',(1.,0.,-5.51800708064193E-17));
#291=DIRECTION('',(4.43177642899628E-17,0.,-1.));
#292=DIRECTION('',(1.,0.,0.));
#293=CARTESIAN_POINT('',(0.,0.,0.));
#294=CARTESIAN_POINT('',(0.,0.,0.));
#295=CARTESIAN_POINT('',(-1.33226762955019E-15,0.,45.));
#296=CARTESIAN_POINT('',(2.87791997799628E-15,0.,-50.));
#297=CARTESIAN_POINT('',(3.03561115475756E-15,0.,-50.));
#298=CARTESIAN_POINT('',(-3.633494,0.,-50.));
#299=CARTESIAN_POINT('',(2.87791997799628E-15,0.,-50.));
#300=CARTESIAN_POINT('',(-4.22499999999999,0.,-50.));
#301=CARTESIAN_POINT('',(2.66453525910038E-15,0.,-50.));
#302=CARTESIAN_POINT('',(2.85686903995855E-15,0.,-49.525));
#303=CARTESIAN_POINT('',(-4.7,0.,-49.525));
#304=CARTESIAN_POINT('',(2.87791997799628E-15,0.,-50.));
#305=CARTESIAN_POINT('',(2.32283998026449E-15,0.,-37.475));
#306=CARTESIAN_POINT('',(-4.7,0.,-37.475));
#307=CARTESIAN_POINT('',(-1.33226762955019E-15,0.,45.));
#308=CARTESIAN_POINT('',(2.30287482745187E-15,0.,-37.0245));
#309=CARTESIAN_POINT('',(-4.2495,0.,-37.0245));
#310=CARTESIAN_POINT('',(2.32283998026449E-15,0.,-37.475));
#311=CARTESIAN_POINT('',(7.39610009887798E-16,0.,-1.75050000000181));
#312=CARTESIAN_POINT('',(-4.24950000000001,0.,-1.75050000000181));
#313=CARTESIAN_POINT('',(-1.33226762955019E-15,0.,45.));
#314=CARTESIAN_POINT('',(3.96125177758639E-16,0.,0.));
#315=CARTESIAN_POINT('',(-5.99999999999999,0.,0.));
#316=CARTESIAN_POINT('',(7.39610009887798E-16,0.,-1.75050000000181));
#317=CARTESIAN_POINT('',(1.83996789124438E-15,0.,-37.3));
#318=CARTESIAN_POINT('',(3.,0.,-37.3));
#319=CARTESIAN_POINT('',(1.83996789124438E-15,0.,-37.3));
#320=CARTESIAN_POINT('',(2.97597077416102E-15,0.,-49.366506));
#321=CARTESIAN_POINT('',(-3.,0.,-49.366506));
#322=CARTESIAN_POINT('',(3.03561115475756E-15,0.,-50.));
#323=CARTESIAN_POINT('',(0.,0.,0.));
#324=CARTESIAN_POINT('',(3.03561115475756E-15,0.,-50.));
#325=CARTESIAN_POINT('',(6.62031763498138E-16,0.,0.));
#326=CARTESIAN_POINT('',(-5.99999999999999,0.,-2.65906585739776E-16));
#327=CARTESIAN_POINT('',(0.,0.,0.));
#328=CARTESIAN_POINT('',(-1.33226762955019E-15,0.,45.));
#329=CARTESIAN_POINT('',(-4.85,0.,45.));
#330=CARTESIAN_POINT('',(4.85,0.,45.));
#331=CARTESIAN_POINT('',(-1.28130220061673E-15,0.,43.85));
#332=CARTESIAN_POINT('',(-6.,0.,43.85));
#333=CARTESIAN_POINT('',(-1.28130220061673E-15,0.,43.85));
#334=CARTESIAN_POINT('',(-1.33226762955019E-15,0.,45.));
#335=MECHANICAL_DESIGN_GEOMETRIC_PRESENTATION_REPRESENTATION('',(#185,#186,
#187,#188,#189),#336);
#336=(
GEOMETRIC_REPRESENTATION_CONTEXT(3)
GLOBAL_UNCERTAINTY_ASSIGNED_CONTEXT((#337))
GLOBAL_UNIT_ASSIGNED_CONTEXT((#343,#339,#338))
REPRESENTATION_CONTEXT('PM06BHM-05700-12N1','TOP_LEVEL_ASSEMBLY_PART')
);
#337=UNCERTAINTY_MEASURE_WITH_UNIT(LENGTH_MEASURE(2.E-5),#343,
'DISTANCE_ACCURACY_VALUE','Maximum Tolerance applied to model');
#338=(
NAMED_UNIT(*)
SI_UNIT($,.STERADIAN.)
SOLID_ANGLE_UNIT()
);
#339=(
CONVERSION_BASED_UNIT('DEGREE',#341)
NAMED_UNIT(#340)
PLANE_ANGLE_UNIT()
);
#340=DIMENSIONAL_EXPONENTS(0.,0.,0.,0.,0.,0.,0.);
#341=PLANE_ANGLE_MEASURE_WITH_UNIT(PLANE_ANGLE_MEASURE(0.0174532925),#342);
#342=(
NAMED_UNIT(*)
PLANE_ANGLE_UNIT()
SI_UNIT($,.RADIAN.)
);
#343=(
LENGTH_UNIT()
NAMED_UNIT(*)
SI_UNIT(.MILLI.,.METRE.)
);
ENDSEC;
END-ISO-10303-21;
