ISO-10303-21;
HEADER;
/* Generated by software containing ST-Developer
 * from STEP Tools, Inc. (www.steptools.com) 
 */
/* OPTION: using custom schema-name function */

FILE_DESCRIPTION(
/* description */ (''),
/* implementation_level */ '2;1');

FILE_NAME(
/* name */ 'PF84-30H6-EN1.stp',
/* time_stamp */ '2018-03-16T14:54:27+05:00',
/* author */ (''),
/* organization */ (''),
/* preprocessor_version */ 'ST-DEVELOPER v16',
/* originating_system */ 'SIEMENS PLM Software NX 11.0',
/* authorisation */ '');

FILE_SCHEMA (('AUTOMOTIVE_DESIGN { 1 0 10303 214 3 1 1 1 }'));
ENDSEC;

DATA;
#10=CONSTRUCTIVE_GEOMETRY_REPRESENTATION_RELATIONSHIP(
'supplemental geometry','',#32,#11);
#11=CONSTRUCTIVE_GEOMETRY_REPRESENTATION('supplemental geometry',(#270,
#271,#272),#447);
#12=PROPERTY_DEFINITION_REPRESENTATION(#16,#14);
#13=PROPERTY_DEFINITION_REPRESENTATION(#17,#15);
#14=REPRESENTATION('',(#18),#447);
#15=REPRESENTATION('',(#19),#447);
#16=PROPERTY_DEFINITION('pmi validation property','',#23);
#17=PROPERTY_DEFINITION('pmi validation property','',#23);
#18=VALUE_REPRESENTATION_ITEM('number of annotations',COUNT_MEASURE(0.));
#19=VALUE_REPRESENTATION_ITEM('number of views',COUNT_MEASURE(0.));
#20=SHAPE_REPRESENTATION_RELATIONSHIP('None',
'relationship between PF84-30H6-EN1-None and PF84-30H6-EN1-None',#32,#21);
#21=ADVANCED_BREP_SHAPE_REPRESENTATION('PF84-30H6-EN1-None',(#48,#49,#50),
#447);
#22=SHAPE_DEFINITION_REPRESENTATION(#23,#32);
#23=PRODUCT_DEFINITION_SHAPE('','',#24);
#24=PRODUCT_DEFINITION(' ','',#26,#25);
#25=PRODUCT_DEFINITION_CONTEXT('part definition',#31,'design');
#26=PRODUCT_DEFINITION_FORMATION_WITH_SPECIFIED_SOURCE(' ',' ',#28,
 .NOT_KNOWN.);
#27=PRODUCT_RELATED_PRODUCT_CATEGORY('part','',(#28));
#28=PRODUCT('inpuE848ofcp','inpuE848ofcp',' ',(#29));
#29=PRODUCT_CONTEXT(' ',#31,'mechanical');
#30=APPLICATION_PROTOCOL_DEFINITION('international standard',
'automotive_design',2010,#31);
#31=APPLICATION_CONTEXT(
'core data for automotive mechanical design processes');
#32=SHAPE_REPRESENTATION('PF84-30H6-EN1-None',(#269),#447);
#33=SURFACE_STYLE_USAGE(.BOTH.,#36);
#34=SURFACE_STYLE_USAGE(.BOTH.,#37);
#35=SURFACE_STYLE_USAGE(.BOTH.,#38);
#36=SURFACE_SIDE_STYLE('',(#39));
#37=SURFACE_SIDE_STYLE('',(#40));
#38=SURFACE_SIDE_STYLE('',(#41));
#39=SURFACE_STYLE_FILL_AREA(#42);
#40=SURFACE_STYLE_FILL_AREA(#43);
#41=SURFACE_STYLE_FILL_AREA(#44);
#42=FILL_AREA_STYLE('',(#45));
#43=FILL_AREA_STYLE('',(#46));
#44=FILL_AREA_STYLE('',(#47));
#45=FILL_AREA_STYLE_COLOUR('',#264);
#46=FILL_AREA_STYLE_COLOUR('',#265);
#47=FILL_AREA_STYLE_COLOUR('',#264);
#48=MANIFOLD_SOLID_BREP('NOCUT',#51);
#49=MANIFOLD_SOLID_BREP('CUT',#52);
#50=MANIFOLD_SOLID_BREP('NOCUT',#53);
#51=CLOSED_SHELL('',(#96,#97,#98,#99));
#52=CLOSED_SHELL('',(#100,#101,#102,#103,#104,#105,#106));
#53=CLOSED_SHELL('',(#107,#108,#109,#110,#111,#112,#113,#114));
#54=CONICAL_SURFACE('',#279,5.5,45.);
#55=CONICAL_SURFACE('',#290,14.35025,30.6506679570477);
#56=CONICAL_SURFACE('',#292,14.938375,28.0724869358887);
#57=CONICAL_SURFACE('',#293,14.9775833333338,3.17983011990323);
#58=CONICAL_SURFACE('',#297,6.86145833333285,44.9999999999999);
#59=CONICAL_SURFACE('',#303,8.42979166666805,60.1069728500378);
#60=CONICAL_SURFACE('',#307,14.5,45.);
#61=CYLINDRICAL_SURFACE('',#276,5.5);
#62=CYLINDRICAL_SURFACE('',#284,8.64999999999986);
#63=CYLINDRICAL_SURFACE('',#289,15.);
#64=CYLINDRICAL_SURFACE('',#299,7.21433333333289);
#65=CYLINDRICAL_SURFACE('',#305,14.5);
#66=FACE_BOUND('',#127,.T.);
#67=FACE_BOUND('',#128,.T.);
#68=FACE_BOUND('',#130,.T.);
#69=FACE_BOUND('',#131,.T.);
#70=FACE_BOUND('',#132,.T.);
#71=FACE_BOUND('',#133,.T.);
#72=FACE_BOUND('',#134,.T.);
#73=FACE_BOUND('',#135,.T.);
#74=FACE_BOUND('',#136,.T.);
#75=FACE_BOUND('',#137,.T.);
#76=FACE_BOUND('',#138,.T.);
#77=FACE_BOUND('',#139,.T.);
#78=FACE_BOUND('',#140,.T.);
#79=FACE_BOUND('',#141,.T.);
#80=FACE_BOUND('',#142,.T.);
#81=FACE_BOUND('',#143,.T.);
#82=FACE_BOUND('',#144,.T.);
#83=FACE_BOUND('',#145,.T.);
#84=FACE_BOUND('',#147,.T.);
#85=FACE_BOUND('',#148,.T.);
#86=FACE_BOUND('',#149,.T.);
#87=FACE_BOUND('',#150,.T.);
#88=FACE_BOUND('',#151,.T.);
#89=FACE_BOUND('',#152,.T.);
#90=FACE_BOUND('',#153,.T.);
#91=FACE_BOUND('',#154,.T.);
#92=FACE_BOUND('',#155,.T.);
#93=FACE_BOUND('',#156,.T.);
#94=FACE_BOUND('',#157,.T.);
#95=FACE_BOUND('',#158,.T.);
#96=ADVANCED_FACE('',(#122),#115,.F.);
#97=ADVANCED_FACE('',(#66,#67),#61,.T.);
#98=ADVANCED_FACE('',(#123),#116,.T.);
#99=ADVANCED_FACE('',(#68,#69),#54,.T.);
#100=ADVANCED_FACE('',(#70,#71),#117,.T.);
#101=ADVANCED_FACE('',(#72,#73),#62,.F.);
#102=ADVANCED_FACE('',(#74,#75),#118,.T.);
#103=ADVANCED_FACE('',(#76,#77),#63,.T.);
#104=ADVANCED_FACE('',(#78,#79),#55,.T.);
#105=ADVANCED_FACE('',(#80,#81),#56,.T.);
#106=ADVANCED_FACE('',(#82,#83),#57,.T.);
#107=ADVANCED_FACE('',(#124),#119,.T.);
#108=ADVANCED_FACE('',(#84,#85),#58,.T.);
#109=ADVANCED_FACE('',(#86,#87),#64,.T.);
#110=ADVANCED_FACE('',(#88,#89),#120,.T.);
#111=ADVANCED_FACE('',(#90,#91),#59,.T.);
#112=ADVANCED_FACE('',(#92,#93),#65,.T.);
#113=ADVANCED_FACE('',(#94,#95),#60,.T.);
#114=ADVANCED_FACE('',(#125),#121,.T.);
#115=PLANE('',#274);
#116=PLANE('',#278);
#117=PLANE('',#282);
#118=PLANE('',#286);
#119=PLANE('',#295);
#120=PLANE('',#301);
#121=PLANE('',#308);
#122=FACE_OUTER_BOUND('',#126,.T.);
#123=FACE_OUTER_BOUND('',#129,.T.);
#124=FACE_OUTER_BOUND('',#146,.T.);
#125=FACE_OUTER_BOUND('',#159,.T.);
#126=EDGE_LOOP('',(#160));
#127=EDGE_LOOP('',(#161));
#128=EDGE_LOOP('',(#162));
#129=EDGE_LOOP('',(#163));
#130=EDGE_LOOP('',(#164));
#131=EDGE_LOOP('',(#165));
#132=EDGE_LOOP('',(#166));
#133=EDGE_LOOP('',(#167));
#134=EDGE_LOOP('',(#168));
#135=EDGE_LOOP('',(#169));
#136=EDGE_LOOP('',(#170));
#137=EDGE_LOOP('',(#171));
#138=EDGE_LOOP('',(#172));
#139=EDGE_LOOP('',(#173));
#140=EDGE_LOOP('',(#174));
#141=EDGE_LOOP('',(#175));
#142=EDGE_LOOP('',(#176));
#143=EDGE_LOOP('',(#177));
#144=EDGE_LOOP('',(#178));
#145=EDGE_LOOP('',(#179));
#146=EDGE_LOOP('',(#180));
#147=EDGE_LOOP('',(#181));
#148=EDGE_LOOP('',(#182));
#149=EDGE_LOOP('',(#183));
#150=EDGE_LOOP('',(#184));
#151=EDGE_LOOP('',(#185));
#152=EDGE_LOOP('',(#186));
#153=EDGE_LOOP('',(#187));
#154=EDGE_LOOP('',(#188));
#155=EDGE_LOOP('',(#189));
#156=EDGE_LOOP('',(#190));
#157=EDGE_LOOP('',(#191));
#158=EDGE_LOOP('',(#192));
#159=EDGE_LOOP('',(#193));
#160=ORIENTED_EDGE('',*,*,#211,.F.);
#161=ORIENTED_EDGE('',*,*,#212,.F.);
#162=ORIENTED_EDGE('',*,*,#211,.T.);
#163=ORIENTED_EDGE('',*,*,#213,.T.);
#164=ORIENTED_EDGE('',*,*,#212,.T.);
#165=ORIENTED_EDGE('',*,*,#213,.F.);
#166=ORIENTED_EDGE('',*,*,#214,.F.);
#167=ORIENTED_EDGE('',*,*,#215,.T.);
#168=ORIENTED_EDGE('',*,*,#216,.T.);
#169=ORIENTED_EDGE('',*,*,#215,.F.);
#170=ORIENTED_EDGE('',*,*,#217,.F.);
#171=ORIENTED_EDGE('',*,*,#216,.F.);
#172=ORIENTED_EDGE('',*,*,#218,.F.);
#173=ORIENTED_EDGE('',*,*,#219,.F.);
#174=ORIENTED_EDGE('',*,*,#217,.T.);
#175=ORIENTED_EDGE('',*,*,#219,.T.);
#176=ORIENTED_EDGE('',*,*,#214,.T.);
#177=ORIENTED_EDGE('',*,*,#220,.T.);
#178=ORIENTED_EDGE('',*,*,#218,.T.);
#179=ORIENTED_EDGE('',*,*,#220,.F.);
#180=ORIENTED_EDGE('',*,*,#221,.T.);
#181=ORIENTED_EDGE('',*,*,#222,.T.);
#182=ORIENTED_EDGE('',*,*,#221,.F.);
#183=ORIENTED_EDGE('',*,*,#223,.T.);
#184=ORIENTED_EDGE('',*,*,#222,.F.);
#185=ORIENTED_EDGE('',*,*,#224,.T.);
#186=ORIENTED_EDGE('',*,*,#223,.F.);
#187=ORIENTED_EDGE('',*,*,#225,.T.);
#188=ORIENTED_EDGE('',*,*,#224,.F.);
#189=ORIENTED_EDGE('',*,*,#226,.T.);
#190=ORIENTED_EDGE('',*,*,#225,.F.);
#191=ORIENTED_EDGE('',*,*,#227,.T.);
#192=ORIENTED_EDGE('',*,*,#226,.F.);
#193=ORIENTED_EDGE('',*,*,#227,.F.);
#194=VERTEX_POINT('',#394);
#195=VERTEX_POINT('',#397);
#196=VERTEX_POINT('',#400);
#197=VERTEX_POINT('',#404);
#198=VERTEX_POINT('',#406);
#199=VERTEX_POINT('',#409);
#200=VERTEX_POINT('',#412);
#201=VERTEX_POINT('',#415);
#202=VERTEX_POINT('',#417);
#203=VERTEX_POINT('',#421);
#204=VERTEX_POINT('',#425);
#205=VERTEX_POINT('',#428);
#206=VERTEX_POINT('',#431);
#207=VERTEX_POINT('',#434);
#208=VERTEX_POINT('',#437);
#209=VERTEX_POINT('',#440);
#210=VERTEX_POINT('',#443);
#211=EDGE_CURVE('',#194,#194,#228,.T.);
#212=EDGE_CURVE('',#195,#195,#229,.T.);
#213=EDGE_CURVE('',#196,#196,#230,.T.);
#214=EDGE_CURVE('',#197,#197,#231,.T.);
#215=EDGE_CURVE('',#198,#198,#232,.T.);
#216=EDGE_CURVE('',#199,#199,#233,.T.);
#217=EDGE_CURVE('',#200,#200,#234,.T.);
#218=EDGE_CURVE('',#201,#201,#235,.T.);
#219=EDGE_CURVE('',#202,#202,#236,.T.);
#220=EDGE_CURVE('',#203,#203,#237,.T.);
#221=EDGE_CURVE('',#204,#204,#238,.T.);
#222=EDGE_CURVE('',#205,#205,#239,.T.);
#223=EDGE_CURVE('',#206,#206,#240,.T.);
#224=EDGE_CURVE('',#207,#207,#241,.T.);
#225=EDGE_CURVE('',#208,#208,#242,.T.);
#226=EDGE_CURVE('',#209,#209,#243,.T.);
#227=EDGE_CURVE('',#210,#210,#244,.T.);
#228=CIRCLE('',#273,5.5);
#229=CIRCLE('',#275,5.5);
#230=CIRCLE('',#277,5.);
#231=CIRCLE('',#280,14.6037972222218);
#232=CIRCLE('',#281,8.64999999999986);
#233=CIRCLE('',#283,8.64999999999986);
#234=CIRCLE('',#285,14.35025);
#235=CIRCLE('',#287,15.);
#236=CIRCLE('',#288,15.);
#237=CIRCLE('',#291,14.938375);
#238=CIRCLE('',#294,6.86145833333285);
#239=CIRCLE('',#296,7.21433333333289);
#240=CIRCLE('',#298,7.21433333333289);
#241=CIRCLE('',#300,8.42979166666805);
#242=CIRCLE('',#302,14.5);
#243=CIRCLE('',#304,14.5);
#244=CIRCLE('',#306,13.75);
#245=PRESENTATION_LAYER_ASSIGNMENT('1','Layer 1',(#270,#271,#272,#48));
#246=PRESENTATION_LAYER_ASSIGNMENT('3','Layer 3',(#49));
#247=PRESENTATION_LAYER_ASSIGNMENT('2','Layer 2',(#50));
#248=STYLED_ITEM('',(#254),#270);
#249=STYLED_ITEM('',(#255),#271);
#250=STYLED_ITEM('',(#256),#272);
#251=STYLED_ITEM('',(#257),#48);
#252=STYLED_ITEM('',(#258),#49);
#253=STYLED_ITEM('',(#259),#50);
#254=PRESENTATION_STYLE_ASSIGNMENT((#260));
#255=PRESENTATION_STYLE_ASSIGNMENT((#261));
#256=PRESENTATION_STYLE_ASSIGNMENT((#262));
#257=PRESENTATION_STYLE_ASSIGNMENT((#33));
#258=PRESENTATION_STYLE_ASSIGNMENT((#34));
#259=PRESENTATION_STYLE_ASSIGNMENT((#35));
#260=CURVE_STYLE('',#266,POSITIVE_LENGTH_MEASURE(0.18),#263);
#261=CURVE_STYLE('',#267,POSITIVE_LENGTH_MEASURE(0.18),#263);
#262=CURVE_STYLE('',#268,POSITIVE_LENGTH_MEASURE(0.18),#263);
#263=COLOUR_RGB('Strong Stone',0.576470588235294,0.54508278019379,0.392156862745098);
#264=COLOUR_RGB('Medium Gray',0.490196078431373,0.490196078431373,0.490196078431373);
#265=COLOUR_RGB('Light Gray',0.8,0.8,0.8);
#266=DRAUGHTING_PRE_DEFINED_CURVE_FONT('continuous');
#267=DRAUGHTING_PRE_DEFINED_CURVE_FONT('continuous');
#268=DRAUGHTING_PRE_DEFINED_CURVE_FONT('continuous');
#269=AXIS2_PLACEMENT_3D('',#389,#309,#310);
#270=AXIS2_PLACEMENT_3D('MCS',#390,#311,#312);
#271=AXIS2_PLACEMENT_3D('PCS',#391,#313,#314);
#272=AXIS2_PLACEMENT_3D('CIP',#392,#315,#316);
#273=AXIS2_PLACEMENT_3D('',#393,#317,#318);
#274=AXIS2_PLACEMENT_3D('',#395,#319,#320);
#275=AXIS2_PLACEMENT_3D('',#396,#321,#322);
#276=AXIS2_PLACEMENT_3D('',#398,#323,#324);
#277=AXIS2_PLACEMENT_3D('',#399,#325,#326);
#278=AXIS2_PLACEMENT_3D('',#401,#327,#328);
#279=AXIS2_PLACEMENT_3D('',#402,#329,#330);
#280=AXIS2_PLACEMENT_3D('',#403,#331,#332);
#281=AXIS2_PLACEMENT_3D('',#405,#333,#334);
#282=AXIS2_PLACEMENT_3D('',#407,#335,#336);
#283=AXIS2_PLACEMENT_3D('',#408,#337,#338);
#284=AXIS2_PLACEMENT_3D('',#410,#339,#340);
#285=AXIS2_PLACEMENT_3D('',#411,#341,#342);
#286=AXIS2_PLACEMENT_3D('',#413,#343,#344);
#287=AXIS2_PLACEMENT_3D('',#414,#345,#346);
#288=AXIS2_PLACEMENT_3D('',#416,#347,#348);
#289=AXIS2_PLACEMENT_3D('',#418,#349,#350);
#290=AXIS2_PLACEMENT_3D('',#419,#351,#352);
#291=AXIS2_PLACEMENT_3D('',#420,#353,#354);
#292=AXIS2_PLACEMENT_3D('',#422,#355,#356);
#293=AXIS2_PLACEMENT_3D('',#423,#357,#358);
#294=AXIS2_PLACEMENT_3D('',#424,#359,#360);
#295=AXIS2_PLACEMENT_3D('',#426,#361,#362);
#296=AXIS2_PLACEMENT_3D('',#427,#363,#364);
#297=AXIS2_PLACEMENT_3D('',#429,#365,#366);
#298=AXIS2_PLACEMENT_3D('',#430,#367,#368);
#299=AXIS2_PLACEMENT_3D('',#432,#369,#370);
#300=AXIS2_PLACEMENT_3D('',#433,#371,#372);
#301=AXIS2_PLACEMENT_3D('',#435,#373,#374);
#302=AXIS2_PLACEMENT_3D('',#436,#375,#376);
#303=AXIS2_PLACEMENT_3D('',#438,#377,#378);
#304=AXIS2_PLACEMENT_3D('',#439,#379,#380);
#305=AXIS2_PLACEMENT_3D('',#441,#381,#382);
#306=AXIS2_PLACEMENT_3D('',#442,#383,#384);
#307=AXIS2_PLACEMENT_3D('',#444,#385,#386);
#308=AXIS2_PLACEMENT_3D('',#445,#387,#388);
#309=DIRECTION('',(0.,0.,1.));
#310=DIRECTION('',(1.,0.,0.));
#311=DIRECTION('',(0.,0.,1.));
#312=DIRECTION('',(1.,0.,0.));
#313=DIRECTION('',(0.,0.,1.));
#314=DIRECTION('',(1.,0.,0.));
#315=DIRECTION('',(0.,0.,1.));
#316=DIRECTION('',(1.,0.,0.));
#317=DIRECTION('',(0.,0.,1.));
#318=DIRECTION('',(1.,0.,0.));
#319=DIRECTION('',(0.,0.,1.));
#320=DIRECTION('',(-1.,0.,0.));
#321=DIRECTION('',(0.,0.,1.));
#322=DIRECTION('',(-1.,0.,0.));
#323=DIRECTION('',(0.,0.,1.));
#324=DIRECTION('',(-1.,0.,0.));
#325=DIRECTION('',(0.,0.,1.));
#326=DIRECTION('',(1.,0.,0.));
#327=DIRECTION('',(0.,0.,1.));
#328=DIRECTION('',(-1.,0.,0.));
#329=DIRECTION('',(0.,0.,-1.));
#330=DIRECTION('',(-1.,0.,6.90093874083265E-18));
#331=DIRECTION('',(0.,0.,1.));
#332=DIRECTION('',(-1.,0.,0.));
#333=DIRECTION('',(0.,0.,1.));
#334=DIRECTION('',(1.,0.,0.));
#335=DIRECTION('',(0.,0.,-1.));
#336=DIRECTION('',(1.,0.,0.));
#337=DIRECTION('',(0.,0.,1.));
#338=DIRECTION('',(1.,0.,0.));
#339=DIRECTION('',(0.,0.,1.));
#340=DIRECTION('',(-1.,0.,0.));
#341=DIRECTION('',(0.,0.,-1.));
#342=DIRECTION('',(1.,0.,0.));
#343=DIRECTION('',(0.,0.,1.));
#344=DIRECTION('',(-1.,0.,0.));
#345=DIRECTION('',(0.,0.,-1.));
#346=DIRECTION('',(1.,0.,0.));
#347=DIRECTION('',(0.,0.,1.));
#348=DIRECTION('',(-1.,0.,0.));
#349=DIRECTION('',(0.,0.,1.));
#350=DIRECTION('',(-1.,0.,0.));
#351=DIRECTION('',(0.,0.,-1.));
#352=DIRECTION('',(0.,-1.,1.75775190488913E-16));
#353=DIRECTION('',(0.,0.,-1.));
#354=DIRECTION('',(0.,-1.,0.));
#355=DIRECTION('',(0.,0.,1.));
#356=DIRECTION('',(0.,1.,-1.01247520868663E-16));
#357=DIRECTION('',(0.,0.,1.));
#358=DIRECTION('',(0.,1.,5.41077812108147E-16));
#359=DIRECTION('',(0.,0.,1.));
#360=DIRECTION('',(1.,0.,0.));
#361=DIRECTION('',(0.,0.,1.));
#362=DIRECTION('',(-1.,0.,0.));
#363=DIRECTION('',(0.,0.,1.));
#364=DIRECTION('',(1.,0.,0.));
#365=DIRECTION('',(0.,0.,-1.));
#366=DIRECTION('',(1.,0.,0.));
#367=DIRECTION('',(0.,0.,1.));
#368=DIRECTION('',(1.,0.,0.));
#369=DIRECTION('',(0.,0.,1.));
#370=DIRECTION('',(-1.,0.,0.));
#371=DIRECTION('',(0.,0.,1.));
#372=DIRECTION('',(1.,0.,0.));
#373=DIRECTION('',(0.,0.,1.));
#374=DIRECTION('',(-1.,0.,0.));
#375=DIRECTION('',(0.,0.,1.));
#376=DIRECTION('',(1.,0.,0.));
#377=DIRECTION('',(0.,0.,-1.));
#378=DIRECTION('',(1.,0.,2.90282876865877E-17));
#379=DIRECTION('',(0.,0.,1.));
#380=DIRECTION('',(1.,0.,0.));
#381=DIRECTION('',(0.,0.,1.));
#382=DIRECTION('',(-1.,0.,0.));
#383=DIRECTION('',(0.,0.,1.));
#384=DIRECTION('',(1.,0.,0.));
#385=DIRECTION('',(0.,0.,1.));
#386=DIRECTION('',(-1.,0.,-2.05191539790258E-17));
#387=DIRECTION('',(0.,0.,-1.));
#388=DIRECTION('',(1.,0.,0.));
#389=CARTESIAN_POINT('',(0.,0.,0.));
#390=CARTESIAN_POINT('',(0.,0.,0.));
#391=CARTESIAN_POINT('',(0.,0.,0.));
#392=CARTESIAN_POINT('',(0.,0.,-20.));
#393=CARTESIAN_POINT('',(0.,0.,0.));
#394=CARTESIAN_POINT('',(5.5,0.,0.));
#395=CARTESIAN_POINT('',(0.,0.,0.));
#396=CARTESIAN_POINT('',(0.,0.,12.4779583333332));
#397=CARTESIAN_POINT('',(-5.5,0.,12.4779583333332));
#398=CARTESIAN_POINT('',(0.,0.,-19.8786250000001));
#399=CARTESIAN_POINT('',(0.,0.,12.9779583333332));
#400=CARTESIAN_POINT('',(5.,0.,12.9779583333332));
#401=CARTESIAN_POINT('',(0.,0.,12.9779583333332));
#402=CARTESIAN_POINT('',(0.,0.,12.4779583333332));
#403=CARTESIAN_POINT('',(0.,0.,-20.));
#404=CARTESIAN_POINT('',(-14.6037972222218,0.,-20.));
#405=CARTESIAN_POINT('',(0.,0.,-20.));
#406=CARTESIAN_POINT('',(8.64999999999986,0.,-20.));
#407=CARTESIAN_POINT('',(0.,-15.,-20.));
#408=CARTESIAN_POINT('',(0.,0.,-5.));
#409=CARTESIAN_POINT('',(8.64999999999986,0.,-5.));
#410=CARTESIAN_POINT('',(0.,0.,-19.8786250000001));
#411=CARTESIAN_POINT('',(0.,0.,-5.));
#412=CARTESIAN_POINT('',(14.35025,0.,-5.));
#413=CARTESIAN_POINT('',(0.,-8.64999999999986,-5.));
#414=CARTESIAN_POINT('',(0.,0.,-18.2634166666796));
#415=CARTESIAN_POINT('',(15.,0.,-18.2634166666796));
#416=CARTESIAN_POINT('',(0.,0.,-6.09645312500029));
#417=CARTESIAN_POINT('',(-15.,0.,-6.09645312500029));
#418=CARTESIAN_POINT('',(0.,0.,-19.8786250000001));
#419=CARTESIAN_POINT('',(0.,0.,-5.));
#420=CARTESIAN_POINT('',(0.,0.,-19.3726666666669));
#421=CARTESIAN_POINT('',(0.,-14.938375,-19.3726666666669));
#422=CARTESIAN_POINT('',(0.,0.,-19.3726666666669));
#423=CARTESIAN_POINT('',(0.,0.,-18.6669166666668));
#424=CARTESIAN_POINT('',(0.,0.,0.));
#425=CARTESIAN_POINT('',(6.86145833333285,0.,0.));
#426=CARTESIAN_POINT('',(0.,-3.80320833333394,0.));
#427=CARTESIAN_POINT('',(0.,0.,-0.352875000000041));
#428=CARTESIAN_POINT('',(7.21433333333289,0.,-0.352875000000041));
#429=CARTESIAN_POINT('',(0.,0.,0.));
#430=CARTESIAN_POINT('',(0.,0.,-1.37229166666702));
#431=CARTESIAN_POINT('',(7.21433333333289,0.,-1.37229166666702));
#432=CARTESIAN_POINT('',(0.,0.,-19.8786250000001));
#433=CARTESIAN_POINT('',(0.,0.,-1.37229166666702));
#434=CARTESIAN_POINT('',(8.42979166666805,0.,-1.37229166666702));
#435=CARTESIAN_POINT('',(0.,-7.21433333333289,-1.37229166666702));
#436=CARTESIAN_POINT('',(0.,0.,-4.86183333333293));
#437=CARTESIAN_POINT('',(14.5,0.,-4.86183333333293));
#438=CARTESIAN_POINT('',(0.,0.,-1.37229166666702));
#439=CARTESIAN_POINT('',(0.,0.,-19.1286250000001));
#440=CARTESIAN_POINT('',(14.5,0.,-19.1286250000001));
#441=CARTESIAN_POINT('',(0.,0.,-19.8786250000001));
#442=CARTESIAN_POINT('',(0.,0.,-19.8786250000001));
#443=CARTESIAN_POINT('',(13.75,0.,-19.8786250000001));
#444=CARTESIAN_POINT('',(0.,0.,-19.1286250000001));
#445=CARTESIAN_POINT('',(0.,-13.75,-19.8786250000001));
#446=MECHANICAL_DESIGN_GEOMETRIC_PRESENTATION_REPRESENTATION('',(#248,#249,
#250,#251,#252,#253),#447);
#447=(
GEOMETRIC_REPRESENTATION_CONTEXT(3)
GLOBAL_UNCERTAINTY_ASSIGNED_CONTEXT((#448))
GLOBAL_UNIT_ASSIGNED_CONTEXT((#454,#450,#449))
REPRESENTATION_CONTEXT('PF84-30H6-EN1','TOP_LEVEL_ASSEMBLY_PART')
);
#448=UNCERTAINTY_MEASURE_WITH_UNIT(LENGTH_MEASURE(2.E-5),#454,
'DISTANCE_ACCURACY_VALUE','Maximum Tolerance applied to model');
#449=(
NAMED_UNIT(*)
SI_UNIT($,.STERADIAN.)
SOLID_ANGLE_UNIT()
);
#450=(
CONVERSION_BASED_UNIT('DEGREE',#452)
NAMED_UNIT(#451)
PLANE_ANGLE_UNIT()
);
#451=DIMENSIONAL_EXPONENTS(0.,0.,0.,0.,0.,0.,0.);
#452=PLANE_ANGLE_MEASURE_WITH_UNIT(PLANE_ANGLE_MEASURE(0.0174532925),#453);
#453=(
NAMED_UNIT(*)
PLANE_ANGLE_UNIT()
SI_UNIT($,.RADIAN.)
);
#454=(
LENGTH_UNIT()
NAMED_UNIT(*)
SI_UNIT(.MILLI.,.METRE.)
);
ENDSEC;
END-ISO-10303-21;
