ISO-10303-21;
HEADER;
/* Generated by software containing ST-Developer
 * from STEP Tools, Inc. (www.steptools.com) 
 */
/* OPTION: using custom schema-name function */

FILE_DESCRIPTION(
/* description */ (''),
/* implementation_level */ '2;1');

FILE_NAME(
/* name */ 'PF84-26H6-EN1.stp',
/* time_stamp */ '2018-03-16T14:54:27+05:00',
/* author */ (''),
/* organization */ (''),
/* preprocessor_version */ 'ST-DEVELOPER v16',
/* originating_system */ 'SIEMENS PLM Software NX 11.0',
/* authorisation */ '');

FILE_SCHEMA (('AUTOMOTIVE_DESIGN { 1 0 10303 214 3 1 1 1 }'));
ENDSEC;

DATA;
#10=CONSTRUCTIVE_GEOMETRY_REPRESENTATION_RELATIONSHIP(
'supplemental geometry','',#32,#11);
#11=CONSTRUCTIVE_GEOMETRY_REPRESENTATION('supplemental geometry',(#259,
#260,#261),#427);
#12=PROPERTY_DEFINITION_REPRESENTATION(#16,#14);
#13=PROPERTY_DEFINITION_REPRESENTATION(#17,#15);
#14=REPRESENTATION('',(#18),#427);
#15=REPRESENTATION('',(#19),#427);
#16=PROPERTY_DEFINITION('pmi validation property','',#23);
#17=PROPERTY_DEFINITION('pmi validation property','',#23);
#18=VALUE_REPRESENTATION_ITEM('number of annotations',COUNT_MEASURE(0.));
#19=VALUE_REPRESENTATION_ITEM('number of views',COUNT_MEASURE(0.));
#20=SHAPE_REPRESENTATION_RELATIONSHIP('None',
'relationship between PF84-26H6-EN1-None and PF84-26H6-EN1-None',#32,#21);
#21=ADVANCED_BREP_SHAPE_REPRESENTATION('PF84-26H6-EN1-None',(#52,#53,#54),
#427);
#22=SHAPE_DEFINITION_REPRESENTATION(#23,#32);
#23=PRODUCT_DEFINITION_SHAPE('','',#24);
#24=PRODUCT_DEFINITION(' ','',#26,#25);
#25=PRODUCT_DEFINITION_CONTEXT('part definition',#31,'design');
#26=PRODUCT_DEFINITION_FORMATION_WITH_SPECIFIED_SOURCE(' ',' ',#28,
 .NOT_KNOWN.);
#27=PRODUCT_RELATED_PRODUCT_CATEGORY('part','',(#28));
#28=PRODUCT('inpuE848ofbt','inpuE848ofbt',' ',(#29));
#29=PRODUCT_CONTEXT(' ',#31,'mechanical');
#30=APPLICATION_PROTOCOL_DEFINITION('international standard',
'automotive_design',2010,#31);
#31=APPLICATION_CONTEXT(
'core data for automotive mechanical design processes');
#32=SHAPE_REPRESENTATION('PF84-26H6-EN1-None',(#258),#427);
#33=FACE_OUTER_BOUND('',#134,.T.);
#34=FACE_OUTER_BOUND('',#147,.T.);
#35=FACE_OUTER_BOUND('',#148,.T.);
#36=FACE_OUTER_BOUND('',#151,.T.);
#37=SURFACE_STYLE_USAGE(.BOTH.,#40);
#38=SURFACE_STYLE_USAGE(.BOTH.,#41);
#39=SURFACE_STYLE_USAGE(.BOTH.,#42);
#40=SURFACE_SIDE_STYLE('',(#43));
#41=SURFACE_SIDE_STYLE('',(#44));
#42=SURFACE_SIDE_STYLE('',(#45));
#43=SURFACE_STYLE_FILL_AREA(#46);
#44=SURFACE_STYLE_FILL_AREA(#47);
#45=SURFACE_STYLE_FILL_AREA(#48);
#46=FILL_AREA_STYLE('',(#49));
#47=FILL_AREA_STYLE('',(#50));
#48=FILL_AREA_STYLE('',(#51));
#49=FILL_AREA_STYLE_COLOUR('',#253);
#50=FILL_AREA_STYLE_COLOUR('',#254);
#51=FILL_AREA_STYLE_COLOUR('',#254);
#52=MANIFOLD_SOLID_BREP('CUT',#55);
#53=MANIFOLD_SOLID_BREP('NOCUT',#56);
#54=MANIFOLD_SOLID_BREP('NOCUT',#57);
#55=CLOSED_SHELL('',(#71,#72,#73,#74,#75,#76));
#56=CLOSED_SHELL('',(#77,#78,#79,#80,#81,#82,#83,#84));
#57=CLOSED_SHELL('',(#85,#86,#87,#88));
#58=CONICAL_SURFACE('',#272,12.3898333333334,29.9816393688454);
#59=CONICAL_SURFACE('',#273,12.9779583333336,30.9637565320854);
#60=CONICAL_SURFACE('',#277,11.75,45.);
#61=CONICAL_SURFACE('',#281,12.5,59.9907148401313);
#62=CONICAL_SURFACE('',#287,7.214333333333,45.0000000000739);
#63=CONICAL_SURFACE('',#295,5.5,45.);
#64=PLANE('',#267);
#65=PLANE('',#271);
#66=PLANE('',#275);
#67=PLANE('',#283);
#68=PLANE('',#288);
#69=PLANE('',#290);
#70=PLANE('',#294);
#71=ADVANCED_FACE('',(#94,#95),#89,.T.);
#72=ADVANCED_FACE('',(#96,#97),#64,.T.);
#73=ADVANCED_FACE('',(#98,#99),#90,.F.);
#74=ADVANCED_FACE('',(#100,#101),#65,.T.);
#75=ADVANCED_FACE('',(#102,#103),#58,.T.);
#76=ADVANCED_FACE('',(#104,#105),#59,.T.);
#77=ADVANCED_FACE('',(#33),#66,.F.);
#78=ADVANCED_FACE('',(#106,#107),#60,.T.);
#79=ADVANCED_FACE('',(#108,#109),#91,.T.);
#80=ADVANCED_FACE('',(#110,#111),#61,.T.);
#81=ADVANCED_FACE('',(#112,#113),#67,.F.);
#82=ADVANCED_FACE('',(#114,#115),#92,.T.);
#83=ADVANCED_FACE('',(#116,#117),#62,.T.);
#84=ADVANCED_FACE('',(#34),#68,.F.);
#85=ADVANCED_FACE('',(#35),#69,.F.);
#86=ADVANCED_FACE('',(#118,#119),#93,.T.);
#87=ADVANCED_FACE('',(#36),#70,.F.);
#88=ADVANCED_FACE('',(#120,#121),#63,.T.);
#89=CYLINDRICAL_SURFACE('',#264,13.0000000000001);
#90=CYLINDRICAL_SURFACE('',#269,9.50000000000011);
#91=CYLINDRICAL_SURFACE('',#279,12.5);
#92=CYLINDRICAL_SURFACE('',#285,7.214333333333);
#93=CYLINDRICAL_SURFACE('',#292,5.5);
#94=FACE_BOUND('',#122,.T.);
#95=FACE_BOUND('',#123,.T.);
#96=FACE_BOUND('',#124,.T.);
#97=FACE_BOUND('',#125,.T.);
#98=FACE_BOUND('',#126,.T.);
#99=FACE_BOUND('',#127,.T.);
#100=FACE_BOUND('',#128,.T.);
#101=FACE_BOUND('',#129,.T.);
#102=FACE_BOUND('',#130,.T.);
#103=FACE_BOUND('',#131,.T.);
#104=FACE_BOUND('',#132,.T.);
#105=FACE_BOUND('',#133,.T.);
#106=FACE_BOUND('',#135,.T.);
#107=FACE_BOUND('',#136,.T.);
#108=FACE_BOUND('',#137,.T.);
#109=FACE_BOUND('',#138,.T.);
#110=FACE_BOUND('',#139,.T.);
#111=FACE_BOUND('',#140,.T.);
#112=FACE_BOUND('',#141,.T.);
#113=FACE_BOUND('',#142,.T.);
#114=FACE_BOUND('',#143,.T.);
#115=FACE_BOUND('',#144,.T.);
#116=FACE_BOUND('',#145,.T.);
#117=FACE_BOUND('',#146,.T.);
#118=FACE_BOUND('',#149,.T.);
#119=FACE_BOUND('',#150,.T.);
#120=FACE_BOUND('',#152,.T.);
#121=FACE_BOUND('',#153,.T.);
#122=EDGE_LOOP('',(#154));
#123=EDGE_LOOP('',(#155));
#124=EDGE_LOOP('',(#156));
#125=EDGE_LOOP('',(#157));
#126=EDGE_LOOP('',(#158));
#127=EDGE_LOOP('',(#159));
#128=EDGE_LOOP('',(#160));
#129=EDGE_LOOP('',(#161));
#130=EDGE_LOOP('',(#162));
#131=EDGE_LOOP('',(#163));
#132=EDGE_LOOP('',(#164));
#133=EDGE_LOOP('',(#165));
#134=EDGE_LOOP('',(#166));
#135=EDGE_LOOP('',(#167));
#136=EDGE_LOOP('',(#168));
#137=EDGE_LOOP('',(#169));
#138=EDGE_LOOP('',(#170));
#139=EDGE_LOOP('',(#171));
#140=EDGE_LOOP('',(#172));
#141=EDGE_LOOP('',(#173));
#142=EDGE_LOOP('',(#174));
#143=EDGE_LOOP('',(#175));
#144=EDGE_LOOP('',(#176));
#145=EDGE_LOOP('',(#177));
#146=EDGE_LOOP('',(#178));
#147=EDGE_LOOP('',(#179));
#148=EDGE_LOOP('',(#180));
#149=EDGE_LOOP('',(#181));
#150=EDGE_LOOP('',(#182));
#151=EDGE_LOOP('',(#183));
#152=EDGE_LOOP('',(#184));
#153=EDGE_LOOP('',(#185));
#154=ORIENTED_EDGE('',*,*,#202,.F.);
#155=ORIENTED_EDGE('',*,*,#203,.F.);
#156=ORIENTED_EDGE('',*,*,#204,.F.);
#157=ORIENTED_EDGE('',*,*,#205,.T.);
#158=ORIENTED_EDGE('',*,*,#206,.T.);
#159=ORIENTED_EDGE('',*,*,#205,.F.);
#160=ORIENTED_EDGE('',*,*,#207,.F.);
#161=ORIENTED_EDGE('',*,*,#206,.F.);
#162=ORIENTED_EDGE('',*,*,#203,.T.);
#163=ORIENTED_EDGE('',*,*,#207,.T.);
#164=ORIENTED_EDGE('',*,*,#202,.T.);
#165=ORIENTED_EDGE('',*,*,#204,.T.);
#166=ORIENTED_EDGE('',*,*,#208,.F.);
#167=ORIENTED_EDGE('',*,*,#209,.F.);
#168=ORIENTED_EDGE('',*,*,#208,.T.);
#169=ORIENTED_EDGE('',*,*,#210,.F.);
#170=ORIENTED_EDGE('',*,*,#209,.T.);
#171=ORIENTED_EDGE('',*,*,#211,.F.);
#172=ORIENTED_EDGE('',*,*,#210,.T.);
#173=ORIENTED_EDGE('',*,*,#212,.F.);
#174=ORIENTED_EDGE('',*,*,#211,.T.);
#175=ORIENTED_EDGE('',*,*,#213,.F.);
#176=ORIENTED_EDGE('',*,*,#212,.T.);
#177=ORIENTED_EDGE('',*,*,#214,.F.);
#178=ORIENTED_EDGE('',*,*,#213,.T.);
#179=ORIENTED_EDGE('',*,*,#214,.T.);
#180=ORIENTED_EDGE('',*,*,#215,.F.);
#181=ORIENTED_EDGE('',*,*,#216,.F.);
#182=ORIENTED_EDGE('',*,*,#215,.T.);
#183=ORIENTED_EDGE('',*,*,#217,.T.);
#184=ORIENTED_EDGE('',*,*,#217,.F.);
#185=ORIENTED_EDGE('',*,*,#216,.T.);
#186=VERTEX_POINT('',#377);
#187=VERTEX_POINT('',#379);
#188=VERTEX_POINT('',#382);
#189=VERTEX_POINT('',#384);
#190=VERTEX_POINT('',#387);
#191=VERTEX_POINT('',#390);
#192=VERTEX_POINT('',#395);
#193=VERTEX_POINT('',#398);
#194=VERTEX_POINT('',#401);
#195=VERTEX_POINT('',#404);
#196=VERTEX_POINT('',#407);
#197=VERTEX_POINT('',#410);
#198=VERTEX_POINT('',#413);
#199=VERTEX_POINT('',#417);
#200=VERTEX_POINT('',#420);
#201=VERTEX_POINT('',#423);
#202=EDGE_CURVE('',#186,#186,#218,.T.);
#203=EDGE_CURVE('',#187,#187,#219,.T.);
#204=EDGE_CURVE('',#188,#188,#220,.T.);
#205=EDGE_CURVE('',#189,#189,#221,.T.);
#206=EDGE_CURVE('',#190,#190,#222,.T.);
#207=EDGE_CURVE('',#191,#191,#223,.T.);
#208=EDGE_CURVE('',#192,#192,#224,.T.);
#209=EDGE_CURVE('',#193,#193,#225,.T.);
#210=EDGE_CURVE('',#194,#194,#226,.T.);
#211=EDGE_CURVE('',#195,#195,#227,.T.);
#212=EDGE_CURVE('',#196,#196,#228,.T.);
#213=EDGE_CURVE('',#197,#197,#229,.T.);
#214=EDGE_CURVE('',#198,#198,#230,.T.);
#215=EDGE_CURVE('',#199,#199,#231,.T.);
#216=EDGE_CURVE('',#200,#200,#232,.T.);
#217=EDGE_CURVE('',#201,#201,#233,.T.);
#218=CIRCLE('',#262,13.0000000000001);
#219=CIRCLE('',#263,13.0000000000001);
#220=CIRCLE('',#265,12.6250833333336);
#221=CIRCLE('',#266,9.50000000000011);
#222=CIRCLE('',#268,9.50000000000011);
#223=CIRCLE('',#270,12.3898333333334);
#224=CIRCLE('',#274,11.75);
#225=CIRCLE('',#276,12.5);
#226=CIRCLE('',#278,12.5);
#227=CIRCLE('',#280,8.15533333333326);
#228=CIRCLE('',#282,7.214333333333);
#229=CIRCLE('',#284,7.214333333333);
#230=CIRCLE('',#286,6.86145833333319);
#231=CIRCLE('',#289,5.5);
#232=CIRCLE('',#291,5.5);
#233=CIRCLE('',#293,5.);
#234=PRESENTATION_LAYER_ASSIGNMENT('1','Layer 1',(#259,#260,#261,#54));
#235=PRESENTATION_LAYER_ASSIGNMENT('3','Layer 3',(#52));
#236=PRESENTATION_LAYER_ASSIGNMENT('2','Layer 2',(#53));
#237=STYLED_ITEM('',(#243),#259);
#238=STYLED_ITEM('',(#244),#260);
#239=STYLED_ITEM('',(#245),#261);
#240=STYLED_ITEM('',(#246),#52);
#241=STYLED_ITEM('',(#247),#53);
#242=STYLED_ITEM('',(#248),#54);
#243=PRESENTATION_STYLE_ASSIGNMENT((#249));
#244=PRESENTATION_STYLE_ASSIGNMENT((#250));
#245=PRESENTATION_STYLE_ASSIGNMENT((#251));
#246=PRESENTATION_STYLE_ASSIGNMENT((#37));
#247=PRESENTATION_STYLE_ASSIGNMENT((#38));
#248=PRESENTATION_STYLE_ASSIGNMENT((#39));
#249=CURVE_STYLE('',#255,POSITIVE_LENGTH_MEASURE(0.18),#252);
#250=CURVE_STYLE('',#256,POSITIVE_LENGTH_MEASURE(0.18),#252);
#251=CURVE_STYLE('',#257,POSITIVE_LENGTH_MEASURE(0.18),#252);
#252=COLOUR_RGB('Strong Stone',0.576470588235294,0.54508278019379,0.392156862745098);
#253=COLOUR_RGB('Light Gray',0.8,0.8,0.8);
#254=COLOUR_RGB('Medium Gray',0.490196078431373,0.490196078431373,0.490196078431373);
#255=DRAUGHTING_PRE_DEFINED_CURVE_FONT('continuous');
#256=DRAUGHTING_PRE_DEFINED_CURVE_FONT('continuous');
#257=DRAUGHTING_PRE_DEFINED_CURVE_FONT('continuous');
#258=AXIS2_PLACEMENT_3D('',#372,#296,#297);
#259=AXIS2_PLACEMENT_3D('MCS',#373,#298,#299);
#260=AXIS2_PLACEMENT_3D('PCS',#374,#300,#301);
#261=AXIS2_PLACEMENT_3D('CIP',#375,#302,#303);
#262=AXIS2_PLACEMENT_3D('',#376,#304,#305);
#263=AXIS2_PLACEMENT_3D('',#378,#306,#307);
#264=AXIS2_PLACEMENT_3D('',#380,#308,#309);
#265=AXIS2_PLACEMENT_3D('',#381,#310,#311);
#266=AXIS2_PLACEMENT_3D('',#383,#312,#313);
#267=AXIS2_PLACEMENT_3D('',#385,#314,#315);
#268=AXIS2_PLACEMENT_3D('',#386,#316,#317);
#269=AXIS2_PLACEMENT_3D('',#388,#318,#319);
#270=AXIS2_PLACEMENT_3D('',#389,#320,#321);
#271=AXIS2_PLACEMENT_3D('',#391,#322,#323);
#272=AXIS2_PLACEMENT_3D('',#392,#324,#325);
#273=AXIS2_PLACEMENT_3D('',#393,#326,#327);
#274=AXIS2_PLACEMENT_3D('',#394,#328,#329);
#275=AXIS2_PLACEMENT_3D('',#396,#330,#331);
#276=AXIS2_PLACEMENT_3D('',#397,#332,#333);
#277=AXIS2_PLACEMENT_3D('',#399,#334,#335);
#278=AXIS2_PLACEMENT_3D('',#400,#336,#337);
#279=AXIS2_PLACEMENT_3D('',#402,#338,#339);
#280=AXIS2_PLACEMENT_3D('',#403,#340,#341);
#281=AXIS2_PLACEMENT_3D('',#405,#342,#343);
#282=AXIS2_PLACEMENT_3D('',#406,#344,#345);
#283=AXIS2_PLACEMENT_3D('',#408,#346,#347);
#284=AXIS2_PLACEMENT_3D('',#409,#348,#349);
#285=AXIS2_PLACEMENT_3D('',#411,#350,#351);
#286=AXIS2_PLACEMENT_3D('',#412,#352,#353);
#287=AXIS2_PLACEMENT_3D('',#414,#354,#355);
#288=AXIS2_PLACEMENT_3D('',#415,#356,#357);
#289=AXIS2_PLACEMENT_3D('',#416,#358,#359);
#290=AXIS2_PLACEMENT_3D('',#418,#360,#361);
#291=AXIS2_PLACEMENT_3D('',#419,#362,#363);
#292=AXIS2_PLACEMENT_3D('',#421,#364,#365);
#293=AXIS2_PLACEMENT_3D('',#422,#366,#367);
#294=AXIS2_PLACEMENT_3D('',#424,#368,#369);
#295=AXIS2_PLACEMENT_3D('',#425,#370,#371);
#296=DIRECTION('',(0.,0.,1.));
#297=DIRECTION('',(1.,0.,0.));
#298=DIRECTION('',(0.,0.,1.));
#299=DIRECTION('',(1.,0.,0.));
#300=DIRECTION('',(0.,0.,1.));
#301=DIRECTION('',(1.,0.,0.));
#302=DIRECTION('',(0.,0.,1.));
#303=DIRECTION('',(1.,0.,0.));
#304=DIRECTION('',(0.,0.,-1.));
#305=DIRECTION('',(1.,0.,0.));
#306=DIRECTION('',(0.,0.,1.));
#307=DIRECTION('',(-1.,0.,0.));
#308=DIRECTION('',(0.,0.,1.));
#309=DIRECTION('',(-1.,0.,0.));
#310=DIRECTION('',(0.,0.,1.));
#311=DIRECTION('',(-1.,0.,0.));
#312=DIRECTION('',(0.,0.,1.));
#313=DIRECTION('',(1.,0.,0.));
#314=DIRECTION('',(0.,0.,-1.));
#315=DIRECTION('',(1.,0.,0.));
#316=DIRECTION('',(0.,0.,1.));
#317=DIRECTION('',(1.,0.,0.));
#318=DIRECTION('',(0.,0.,1.));
#319=DIRECTION('',(-1.,0.,0.));
#320=DIRECTION('',(0.,0.,-1.));
#321=DIRECTION('',(1.,0.,0.));
#322=DIRECTION('',(0.,0.,1.));
#323=DIRECTION('',(-1.,0.,0.));
#324=DIRECTION('',(0.,0.,-1.));
#325=DIRECTION('',(0.,-1.,1.81033695199671E-16));
#326=DIRECTION('',(0.,0.,1.));
#327=DIRECTION('',(0.,1.,6.79198376669594E-17));
#328=DIRECTION('',(0.,0.,1.));
#329=DIRECTION('',(1.,0.,0.));
#330=DIRECTION('',(0.,0.,1.));
#331=DIRECTION('',(-1.,0.,0.));
#332=DIRECTION('',(0.,0.,1.));
#333=DIRECTION('',(1.,0.,0.));
#334=DIRECTION('',(0.,0.,1.));
#335=DIRECTION('',(-1.,0.,1.37166175515834E-17));
#336=DIRECTION('',(0.,0.,1.));
#337=DIRECTION('',(1.,0.,0.));
#338=DIRECTION('',(0.,0.,1.));
#339=DIRECTION('',(-1.,0.,0.));
#340=DIRECTION('',(0.,0.,1.));
#341=DIRECTION('',(1.,0.,0.));
#342=DIRECTION('',(0.,0.,-1.));
#343=DIRECTION('',(1.,0.,-3.23289315005622E-18));
#344=DIRECTION('',(0.,0.,1.));
#345=DIRECTION('',(1.,0.,0.));
#346=DIRECTION('',(0.,0.,-1.));
#347=DIRECTION('',(1.,0.,0.));
#348=DIRECTION('',(0.,0.,1.));
#349=DIRECTION('',(1.,0.,0.));
#350=DIRECTION('',(0.,0.,1.));
#351=DIRECTION('',(-1.,0.,0.));
#352=DIRECTION('',(0.,0.,1.));
#353=DIRECTION('',(1.,0.,0.));
#354=DIRECTION('',(0.,0.,-1.));
#355=DIRECTION('',(1.,0.,9.33270360074825E-17));
#356=DIRECTION('',(0.,0.,-1.));
#357=DIRECTION('',(1.,0.,0.));
#358=DIRECTION('',(0.,0.,1.));
#359=DIRECTION('',(1.,0.,0.));
#360=DIRECTION('',(0.,0.,1.));
#361=DIRECTION('',(-1.,0.,0.));
#362=DIRECTION('',(0.,0.,1.));
#363=DIRECTION('',(-1.,0.,0.));
#364=DIRECTION('',(0.,0.,1.));
#365=DIRECTION('',(-1.,0.,0.));
#366=DIRECTION('',(0.,0.,1.));
#367=DIRECTION('',(-1.,0.,0.));
#368=DIRECTION('',(0.,0.,-1.));
#369=DIRECTION('',(1.,0.,0.));
#370=DIRECTION('',(0.,0.,-1.));
#371=DIRECTION('',(-1.,0.,2.41532855929143E-17));
#372=CARTESIAN_POINT('',(0.,0.,0.));
#373=CARTESIAN_POINT('',(0.,0.,0.));
#374=CARTESIAN_POINT('',(0.,0.,0.));
#375=CARTESIAN_POINT('',(0.,0.,-19.9962499999999));
#376=CARTESIAN_POINT('',(0.,0.,-19.3713888888894));
#377=CARTESIAN_POINT('',(13.0000000000001,0.,-19.3713888888894));
#378=CARTESIAN_POINT('',(0.,0.,-6.05387222222237));
#379=CARTESIAN_POINT('',(-13.0000000000001,0.,-6.05387222222237));
#380=CARTESIAN_POINT('',(0.,0.,-19.8394166666669));
#381=CARTESIAN_POINT('',(0.,0.,-19.9962499999999));
#382=CARTESIAN_POINT('',(-12.6250833333336,0.,-19.9962499999999));
#383=CARTESIAN_POINT('',(0.,0.,-19.9962499999999));
#384=CARTESIAN_POINT('',(9.50000000000011,0.,-19.9962499999999));
#385=CARTESIAN_POINT('',(0.,-13.0000000000001,-19.9962499999999));
#386=CARTESIAN_POINT('',(0.,0.,-4.99624999999992));
#387=CARTESIAN_POINT('',(9.50000000000011,0.,-4.99624999999992));
#388=CARTESIAN_POINT('',(0.,0.,-19.8394166666669));
#389=CARTESIAN_POINT('',(0.,0.,-4.99624999999992));
#390=CARTESIAN_POINT('',(12.3898333333334,0.,-4.99624999999992));
#391=CARTESIAN_POINT('',(0.,-9.50000000000011,-4.99624999999992));
#392=CARTESIAN_POINT('',(0.,0.,-4.99624999999992));
#393=CARTESIAN_POINT('',(0.,0.,-19.4081250000002));
#394=CARTESIAN_POINT('',(0.,0.,-19.8394166666669));
#395=CARTESIAN_POINT('',(11.75,0.,-19.8394166666669));
#396=CARTESIAN_POINT('',(0.,0.,-19.8394166666669));
#397=CARTESIAN_POINT('',(0.,0.,-19.0894166666669));
#398=CARTESIAN_POINT('',(12.5,0.,-19.0894166666669));
#399=CARTESIAN_POINT('',(0.,0.,-19.8394166666669));
#400=CARTESIAN_POINT('',(0.,0.,-3.84241666666662));
#401=CARTESIAN_POINT('',(12.5,0.,-3.84241666666662));
#402=CARTESIAN_POINT('',(0.,0.,-19.8394166666669));
#403=CARTESIAN_POINT('',(0.,0.,-1.33308333333298));
#404=CARTESIAN_POINT('',(8.15533333333326,0.,-1.33308333333298));
#405=CARTESIAN_POINT('',(0.,0.,-3.84241666666662));
#406=CARTESIAN_POINT('',(0.,0.,-1.33308333333298));
#407=CARTESIAN_POINT('',(7.214333333333,0.,-1.33308333333298));
#408=CARTESIAN_POINT('',(0.,-8.15533333333326,-1.33308333333298));
#409=CARTESIAN_POINT('',(0.,0.,-0.352874999998903));
#410=CARTESIAN_POINT('',(7.214333333333,0.,-0.352874999998903));
#411=CARTESIAN_POINT('',(0.,0.,-19.8394166666669));
#412=CARTESIAN_POINT('',(0.,0.,0.));
#413=CARTESIAN_POINT('',(6.86145833333319,0.,0.));
#414=CARTESIAN_POINT('',(0.,0.,-0.352874999998903));
#415=CARTESIAN_POINT('',(0.,-6.86145833333319,0.));
#416=CARTESIAN_POINT('',(0.,0.,0.));
#417=CARTESIAN_POINT('',(5.5,0.,0.));
#418=CARTESIAN_POINT('',(0.,0.,0.));
#419=CARTESIAN_POINT('',(0.,0.,12.517166666667));
#420=CARTESIAN_POINT('',(-5.5,0.,12.517166666667));
#421=CARTESIAN_POINT('',(0.,0.,-19.839416666666));
#422=CARTESIAN_POINT('',(0.,0.,13.017166666667));
#423=CARTESIAN_POINT('',(-5.,0.,13.017166666667));
#424=CARTESIAN_POINT('',(0.,-3.70518749999997,13.017166666667));
#425=CARTESIAN_POINT('',(0.,0.,12.517166666667));
#426=MECHANICAL_DESIGN_GEOMETRIC_PRESENTATION_REPRESENTATION('',(#237,#238,
#239,#240,#241,#242),#427);
#427=(
GEOMETRIC_REPRESENTATION_CONTEXT(3)
GLOBAL_UNCERTAINTY_ASSIGNED_CONTEXT((#428))
GLOBAL_UNIT_ASSIGNED_CONTEXT((#434,#430,#429))
REPRESENTATION_CONTEXT('PF84-26H6-EN1','TOP_LEVEL_ASSEMBLY_PART')
);
#428=UNCERTAINTY_MEASURE_WITH_UNIT(LENGTH_MEASURE(2.E-5),#434,
'DISTANCE_ACCURACY_VALUE','Maximum Tolerance applied to model');
#429=(
NAMED_UNIT(*)
SI_UNIT($,.STERADIAN.)
SOLID_ANGLE_UNIT()
);
#430=(
CONVERSION_BASED_UNIT('DEGREE',#432)
NAMED_UNIT(#431)
PLANE_ANGLE_UNIT()
);
#431=DIMENSIONAL_EXPONENTS(0.,0.,0.,0.,0.,0.,0.);
#432=PLANE_ANGLE_MEASURE_WITH_UNIT(PLANE_ANGLE_MEASURE(0.0174532925),#433);
#433=(
NAMED_UNIT(*)
PLANE_ANGLE_UNIT()
SI_UNIT($,.RADIAN.)
);
#434=(
LENGTH_UNIT()
NAMED_UNIT(*)
SI_UNIT(.MILLI.,.METRE.)
);
ENDSEC;
END-ISO-10303-21;
