ISO-10303-21;
HEADER;
/* Generated by software containing ST-Developer
 * from STEP Tools, Inc. (www.steptools.com) 
 */
/* OPTION: using custom schema-name function */

FILE_DESCRIPTION(
/* description */ (''),
/* implementation_level */ '2;1');

FILE_NAME(
/* name */ '02602349.stp',
/* time_stamp */ '2012-03-30T08:22:24+06:00',
/* author */ (''),
/* organization */ (''),
/* preprocessor_version */ 'ST-DEVELOPER v11',
/* originating_system */ 'SIEMENS PLM Software NX 7.5',
/* authorisation */ '');

FILE_SCHEMA (('AUTOMOTIVE_DESIGN { 1 0 10303 214 1 1 1 1 }'));
ENDSEC;

DATA;
#10=SHAPE_REPRESENTATION_RELATIONSHIP('None',
'relationship between inpuE848ofbk-None and inpuE848ofbk-None',#22,#11);
#11=ADVANCED_BREP_SHAPE_REPRESENTATION('inpuE848ofbk-None',(#49,#50,#51),
#432);
#12=SHAPE_DEFINITION_REPRESENTATION(#13,#22);
#13=PRODUCT_DEFINITION_SHAPE('','',#14);
#14=PRODUCT_DEFINITION(' ','',#16,#15);
#15=PRODUCT_DEFINITION_CONTEXT('part definition',#21,'design');
#16=PRODUCT_DEFINITION_FORMATION_WITH_SPECIFIED_SOURCE(' ',' ',#18,.NOT_KNOWN.);
#17=PRODUCT_RELATED_PRODUCT_CATEGORY('part','',(#18));
#18=PRODUCT('inpuE848ofbk','inpuE848ofbk',' ',(#19));
#19=PRODUCT_CONTEXT(' ',#21,'mechanical');
#20=APPLICATION_PROTOCOL_DEFINITION('international standard',
'automotive_design',2001,#21);
#21=APPLICATION_CONTEXT(
'core data for automotive mechanical design processes');
#22=SHAPE_REPRESENTATION('inpuE848ofbk-None',(#257),#432);
#23=PRESENTATION_LAYER_ASSIGNMENT('2','Layer 2',(#49));
#24=PRESENTATION_LAYER_ASSIGNMENT('3','Layer 3',(#50));
#25=PRESENTATION_LAYER_ASSIGNMENT('1','Layer 1',(#51));
#26=STYLED_ITEM('',(#29),#49);
#27=STYLED_ITEM('',(#30),#50);
#28=STYLED_ITEM('',(#31),#51);
#29=PRESENTATION_STYLE_ASSIGNMENT((#32));
#30=PRESENTATION_STYLE_ASSIGNMENT((#33));
#31=PRESENTATION_STYLE_ASSIGNMENT((#34));
#32=SURFACE_STYLE_USAGE(.BOTH.,#35);
#33=SURFACE_STYLE_USAGE(.BOTH.,#36);
#34=SURFACE_STYLE_USAGE(.BOTH.,#37);
#35=SURFACE_SIDE_STYLE('',(#38));
#36=SURFACE_SIDE_STYLE('',(#39));
#37=SURFACE_SIDE_STYLE('',(#40));
#38=SURFACE_STYLE_FILL_AREA(#41);
#39=SURFACE_STYLE_FILL_AREA(#42);
#40=SURFACE_STYLE_FILL_AREA(#43);
#41=FILL_AREA_STYLE('',(#44));
#42=FILL_AREA_STYLE('',(#45));
#43=FILL_AREA_STYLE('',(#46));
#44=FILL_AREA_STYLE_COLOUR('',#47);
#45=FILL_AREA_STYLE_COLOUR('',#48);
#46=FILL_AREA_STYLE_COLOUR('',#47);
#47=COLOUR_RGB('Medium Gray',0.490196078431373,0.490196078431373,0.490196078431373);
#48=COLOUR_RGB('Light Gray',0.8,0.8,0.8);
#49=MANIFOLD_SOLID_BREP('',#52);
#50=MANIFOLD_SOLID_BREP('',#53);
#51=MANIFOLD_SOLID_BREP('',#54);
#52=CLOSED_SHELL('',(#100,#101,#102,#103,#104,#105,#106,#107));
#53=CLOSED_SHELL('',(#108,#109,#110,#111));
#54=CLOSED_SHELL('',(#112,#113,#114,#115,#116,#117,#118,#119));
#55=CYLINDRICAL_SURFACE('',#263,7.21433333333312);
#56=CYLINDRICAL_SURFACE('',#269,11.9999999999999);
#57=CYLINDRICAL_SURFACE('',#277,9.);
#58=CYLINDRICAL_SURFACE('',#280,12.5);
#59=CYLINDRICAL_SURFACE('',#286,3.9992499999999);
#60=CYLINDRICAL_SURFACE('',#292,3.76400000000001);
#61=CONICAL_SURFACE('',#261,6.86145833333273,45.0000000000463);
#62=CONICAL_SURFACE('',#267,8.1161249999999,59.6502082648115);
#63=CONICAL_SURFACE('',#271,11.9999999999999,45.0000000000043);
#64=CONICAL_SURFACE('',#284,3.72479166666653,28.3007557660086);
#65=CONICAL_SURFACE('',#288,3.99925000000007,24.443954780379);
#66=CONICAL_SURFACE('',#290,3.8032083333336,45.0000000004981);
#67=CONICAL_SURFACE('',#294,3.76400000000001,26.5650511773437);
#68=FACE_BOUND('',#132,.T.);
#69=FACE_BOUND('',#133,.T.);
#70=FACE_BOUND('',#134,.T.);
#71=FACE_BOUND('',#135,.T.);
#72=FACE_BOUND('',#136,.T.);
#73=FACE_BOUND('',#137,.T.);
#74=FACE_BOUND('',#138,.T.);
#75=FACE_BOUND('',#139,.T.);
#76=FACE_BOUND('',#140,.T.);
#77=FACE_BOUND('',#141,.T.);
#78=FACE_BOUND('',#142,.T.);
#79=FACE_BOUND('',#143,.T.);
#80=FACE_BOUND('',#145,.T.);
#81=FACE_BOUND('',#146,.T.);
#82=FACE_BOUND('',#147,.T.);
#83=FACE_BOUND('',#148,.T.);
#84=FACE_BOUND('',#149,.T.);
#85=FACE_BOUND('',#150,.T.);
#86=FACE_BOUND('',#151,.T.);
#87=FACE_BOUND('',#152,.T.);
#88=FACE_BOUND('',#154,.T.);
#89=FACE_BOUND('',#155,.T.);
#90=FACE_BOUND('',#156,.T.);
#91=FACE_BOUND('',#157,.T.);
#92=FACE_BOUND('',#158,.T.);
#93=FACE_BOUND('',#159,.T.);
#94=FACE_BOUND('',#160,.T.);
#95=FACE_BOUND('',#161,.T.);
#96=FACE_BOUND('',#162,.T.);
#97=FACE_BOUND('',#163,.T.);
#98=FACE_BOUND('',#164,.T.);
#99=FACE_BOUND('',#165,.T.);
#100=ADVANCED_FACE('',(#127),#120,.T.);
#101=ADVANCED_FACE('',(#68,#69),#61,.T.);
#102=ADVANCED_FACE('',(#70,#71),#55,.T.);
#103=ADVANCED_FACE('',(#72,#73),#121,.T.);
#104=ADVANCED_FACE('',(#74,#75),#62,.T.);
#105=ADVANCED_FACE('',(#76,#77),#56,.T.);
#106=ADVANCED_FACE('',(#78,#79),#63,.T.);
#107=ADVANCED_FACE('',(#128),#122,.T.);
#108=ADVANCED_FACE('',(#80,#81),#123,.F.);
#109=ADVANCED_FACE('',(#82,#83),#57,.F.);
#110=ADVANCED_FACE('',(#84,#85),#124,.F.);
#111=ADVANCED_FACE('',(#86,#87),#58,.T.);
#112=ADVANCED_FACE('',(#129),#125,.T.);
#113=ADVANCED_FACE('',(#88,#89),#64,.T.);
#114=ADVANCED_FACE('',(#90,#91),#59,.T.);
#115=ADVANCED_FACE('',(#92,#93),#65,.T.);
#116=ADVANCED_FACE('',(#94,#95),#66,.T.);
#117=ADVANCED_FACE('',(#96,#97),#60,.T.);
#118=ADVANCED_FACE('',(#98,#99),#67,.T.);
#119=ADVANCED_FACE('',(#130),#126,.F.);
#120=PLANE('',#259);
#121=PLANE('',#265);
#122=PLANE('',#272);
#123=PLANE('',#275);
#124=PLANE('',#279);
#125=PLANE('',#282);
#126=PLANE('',#295);
#127=FACE_OUTER_BOUND('',#131,.T.);
#128=FACE_OUTER_BOUND('',#144,.T.);
#129=FACE_OUTER_BOUND('',#153,.T.);
#130=FACE_OUTER_BOUND('',#166,.T.);
#131=EDGE_LOOP('',(#167));
#132=EDGE_LOOP('',(#168));
#133=EDGE_LOOP('',(#169));
#134=EDGE_LOOP('',(#170));
#135=EDGE_LOOP('',(#171));
#136=EDGE_LOOP('',(#172));
#137=EDGE_LOOP('',(#173));
#138=EDGE_LOOP('',(#174));
#139=EDGE_LOOP('',(#175));
#140=EDGE_LOOP('',(#176));
#141=EDGE_LOOP('',(#177));
#142=EDGE_LOOP('',(#178));
#143=EDGE_LOOP('',(#179));
#144=EDGE_LOOP('',(#180));
#145=EDGE_LOOP('',(#181));
#146=EDGE_LOOP('',(#182));
#147=EDGE_LOOP('',(#183));
#148=EDGE_LOOP('',(#184));
#149=EDGE_LOOP('',(#185));
#150=EDGE_LOOP('',(#186));
#151=EDGE_LOOP('',(#187));
#152=EDGE_LOOP('',(#188));
#153=EDGE_LOOP('',(#189));
#154=EDGE_LOOP('',(#190));
#155=EDGE_LOOP('',(#191));
#156=EDGE_LOOP('',(#192));
#157=EDGE_LOOP('',(#193));
#158=EDGE_LOOP('',(#194));
#159=EDGE_LOOP('',(#195));
#160=EDGE_LOOP('',(#196));
#161=EDGE_LOOP('',(#197));
#162=EDGE_LOOP('',(#198));
#163=EDGE_LOOP('',(#199));
#164=EDGE_LOOP('',(#200));
#165=EDGE_LOOP('',(#201));
#166=EDGE_LOOP('',(#202));
#167=ORIENTED_EDGE('',*,*,#221,.T.);
#168=ORIENTED_EDGE('',*,*,#222,.T.);
#169=ORIENTED_EDGE('',*,*,#221,.F.);
#170=ORIENTED_EDGE('',*,*,#223,.T.);
#171=ORIENTED_EDGE('',*,*,#222,.F.);
#172=ORIENTED_EDGE('',*,*,#224,.T.);
#173=ORIENTED_EDGE('',*,*,#223,.F.);
#174=ORIENTED_EDGE('',*,*,#225,.T.);
#175=ORIENTED_EDGE('',*,*,#224,.F.);
#176=ORIENTED_EDGE('',*,*,#226,.T.);
#177=ORIENTED_EDGE('',*,*,#225,.F.);
#178=ORIENTED_EDGE('',*,*,#227,.T.);
#179=ORIENTED_EDGE('',*,*,#226,.F.);
#180=ORIENTED_EDGE('',*,*,#227,.F.);
#181=ORIENTED_EDGE('',*,*,#228,.F.);
#182=ORIENTED_EDGE('',*,*,#229,.T.);
#183=ORIENTED_EDGE('',*,*,#230,.F.);
#184=ORIENTED_EDGE('',*,*,#228,.T.);
#185=ORIENTED_EDGE('',*,*,#231,.F.);
#186=ORIENTED_EDGE('',*,*,#230,.T.);
#187=ORIENTED_EDGE('',*,*,#229,.F.);
#188=ORIENTED_EDGE('',*,*,#231,.T.);
#189=ORIENTED_EDGE('',*,*,#232,.T.);
#190=ORIENTED_EDGE('',*,*,#233,.T.);
#191=ORIENTED_EDGE('',*,*,#232,.F.);
#192=ORIENTED_EDGE('',*,*,#234,.T.);
#193=ORIENTED_EDGE('',*,*,#233,.F.);
#194=ORIENTED_EDGE('',*,*,#235,.T.);
#195=ORIENTED_EDGE('',*,*,#234,.F.);
#196=ORIENTED_EDGE('',*,*,#236,.T.);
#197=ORIENTED_EDGE('',*,*,#235,.F.);
#198=ORIENTED_EDGE('',*,*,#237,.T.);
#199=ORIENTED_EDGE('',*,*,#236,.F.);
#200=ORIENTED_EDGE('',*,*,#238,.T.);
#201=ORIENTED_EDGE('',*,*,#237,.F.);
#202=ORIENTED_EDGE('',*,*,#238,.F.);
#203=VERTEX_POINT('',#376);
#204=VERTEX_POINT('',#379);
#205=VERTEX_POINT('',#382);
#206=VERTEX_POINT('',#385);
#207=VERTEX_POINT('',#388);
#208=VERTEX_POINT('',#391);
#209=VERTEX_POINT('',#394);
#210=VERTEX_POINT('',#398);
#211=VERTEX_POINT('',#400);
#212=VERTEX_POINT('',#403);
#213=VERTEX_POINT('',#406);
#214=VERTEX_POINT('',#410);
#215=VERTEX_POINT('',#413);
#216=VERTEX_POINT('',#416);
#217=VERTEX_POINT('',#419);
#218=VERTEX_POINT('',#422);
#219=VERTEX_POINT('',#425);
#220=VERTEX_POINT('',#428);
#221=EDGE_CURVE('',#203,#203,#239,.T.);
#222=EDGE_CURVE('',#204,#204,#240,.T.);
#223=EDGE_CURVE('',#205,#205,#241,.T.);
#224=EDGE_CURVE('',#206,#206,#242,.T.);
#225=EDGE_CURVE('',#207,#207,#243,.T.);
#226=EDGE_CURVE('',#208,#208,#244,.T.);
#227=EDGE_CURVE('',#209,#209,#245,.T.);
#228=EDGE_CURVE('',#210,#210,#246,.T.);
#229=EDGE_CURVE('',#211,#211,#247,.T.);
#230=EDGE_CURVE('',#212,#212,#248,.T.);
#231=EDGE_CURVE('',#213,#213,#249,.T.);
#232=EDGE_CURVE('',#214,#214,#250,.T.);
#233=EDGE_CURVE('',#215,#215,#251,.T.);
#234=EDGE_CURVE('',#216,#216,#252,.T.);
#235=EDGE_CURVE('',#217,#217,#253,.T.);
#236=EDGE_CURVE('',#218,#218,#254,.T.);
#237=EDGE_CURVE('',#219,#219,#255,.T.);
#238=EDGE_CURVE('',#220,#220,#256,.T.);
#239=CIRCLE('',#258,6.86145833333273);
#240=CIRCLE('',#260,7.21433333333312);
#241=CIRCLE('',#262,7.21433333333312);
#242=CIRCLE('',#264,8.1161249999999);
#243=CIRCLE('',#266,11.9999999999999);
#244=CIRCLE('',#268,11.9999999999999);
#245=CIRCLE('',#270,11.2499999999998);
#246=CIRCLE('',#273,9.);
#247=CIRCLE('',#274,12.5);
#248=CIRCLE('',#276,9.);
#249=CIRCLE('',#278,12.5);
#250=CIRCLE('',#281,3.72479166666653);
#251=CIRCLE('',#283,3.99924999999973);
#252=CIRCLE('',#285,3.99925000000007);
#253=CIRCLE('',#287,3.8032083333336);
#254=CIRCLE('',#289,3.76400000000001);
#255=CIRCLE('',#291,3.76400000000001);
#256=CIRCLE('',#293,3.8032083333336);
#257=AXIS2_PLACEMENT_3D('',#374,#296,#297);
#258=AXIS2_PLACEMENT_3D('',#375,#298,#299);
#259=AXIS2_PLACEMENT_3D('',#377,#300,#301);
#260=AXIS2_PLACEMENT_3D('',#378,#302,#303);
#261=AXIS2_PLACEMENT_3D('',#380,#304,#305);
#262=AXIS2_PLACEMENT_3D('',#381,#306,#307);
#263=AXIS2_PLACEMENT_3D('',#383,#308,#309);
#264=AXIS2_PLACEMENT_3D('',#384,#310,#311);
#265=AXIS2_PLACEMENT_3D('',#386,#312,#313);
#266=AXIS2_PLACEMENT_3D('',#387,#314,#315);
#267=AXIS2_PLACEMENT_3D('',#389,#316,#317);
#268=AXIS2_PLACEMENT_3D('',#390,#318,#319);
#269=AXIS2_PLACEMENT_3D('',#392,#320,#321);
#270=AXIS2_PLACEMENT_3D('',#393,#322,#323);
#271=AXIS2_PLACEMENT_3D('',#395,#324,#325);
#272=AXIS2_PLACEMENT_3D('',#396,#326,#327);
#273=AXIS2_PLACEMENT_3D('',#397,#328,#329);
#274=AXIS2_PLACEMENT_3D('',#399,#330,#331);
#275=AXIS2_PLACEMENT_3D('',#401,#332,#333);
#276=AXIS2_PLACEMENT_3D('',#402,#334,#335);
#277=AXIS2_PLACEMENT_3D('',#404,#336,#337);
#278=AXIS2_PLACEMENT_3D('',#405,#338,#339);
#279=AXIS2_PLACEMENT_3D('',#407,#340,#341);
#280=AXIS2_PLACEMENT_3D('',#408,#342,#343);
#281=AXIS2_PLACEMENT_3D('',#409,#344,#345);
#282=AXIS2_PLACEMENT_3D('',#411,#346,#347);
#283=AXIS2_PLACEMENT_3D('',#412,#348,#349);
#284=AXIS2_PLACEMENT_3D('',#414,#350,#351);
#285=AXIS2_PLACEMENT_3D('',#415,#352,#353);
#286=AXIS2_PLACEMENT_3D('',#417,#354,#355);
#287=AXIS2_PLACEMENT_3D('',#418,#356,#357);
#288=AXIS2_PLACEMENT_3D('',#420,#358,#359);
#289=AXIS2_PLACEMENT_3D('',#421,#360,#361);
#290=AXIS2_PLACEMENT_3D('',#423,#362,#363);
#291=AXIS2_PLACEMENT_3D('',#424,#364,#365);
#292=AXIS2_PLACEMENT_3D('',#426,#366,#367);
#293=AXIS2_PLACEMENT_3D('',#427,#368,#369);
#294=AXIS2_PLACEMENT_3D('',#429,#370,#371);
#295=AXIS2_PLACEMENT_3D('',#430,#372,#373);
#296=DIRECTION('',(0.,0.,1.));
#297=DIRECTION('',(1.,0.,0.));
#298=DIRECTION('',(0.,0.,1.));
#299=DIRECTION('',(1.,0.,0.));
#300=DIRECTION('',(0.,0.,1.));
#301=DIRECTION('',(1.,0.,0.));
#302=DIRECTION('',(0.,0.,1.));
#303=DIRECTION('',(1.,0.,0.));
#304=DIRECTION('',(0.,0.,-1.));
#305=DIRECTION('',(-1.,0.,0.));
#306=DIRECTION('',(0.,0.,1.));
#307=DIRECTION('',(1.,0.,0.));
#308=DIRECTION('',(0.,0.,1.));
#309=DIRECTION('',(1.,0.,0.));
#310=DIRECTION('',(0.,0.,1.));
#311=DIRECTION('',(1.,0.,0.));
#312=DIRECTION('',(0.,0.,1.));
#313=DIRECTION('',(1.,0.,0.));
#314=DIRECTION('',(0.,0.,1.));
#315=DIRECTION('',(1.,0.,0.));
#316=DIRECTION('',(0.,0.,-1.));
#317=DIRECTION('',(-1.,0.,3.43709361727855E-017));
#318=DIRECTION('',(0.,0.,1.));
#319=DIRECTION('',(1.,0.,0.));
#320=DIRECTION('',(0.,0.,1.));
#321=DIRECTION('',(1.,0.,0.));
#322=DIRECTION('',(0.,0.,1.));
#323=DIRECTION('',(1.,0.,0.));
#324=DIRECTION('',(0.,0.,1.));
#325=DIRECTION('',(1.,0.,5.48529162364126E-017));
#326=DIRECTION('',(0.,0.,-1.));
#327=DIRECTION('',(-1.,0.,0.));
#328=DIRECTION('',(0.,0.,1.));
#329=DIRECTION('',(1.,0.,0.));
#330=DIRECTION('',(0.,0.,1.));
#331=DIRECTION('',(1.,0.,0.));
#332=DIRECTION('',(0.,0.,-1.));
#333=DIRECTION('',(-1.,0.,0.));
#334=DIRECTION('',(0.,0.,1.));
#335=DIRECTION('',(1.,0.,0.));
#336=DIRECTION('',(0.,0.,1.));
#337=DIRECTION('',(1.,0.,0.));
#338=DIRECTION('',(0.,0.,1.));
#339=DIRECTION('',(1.,0.,0.));
#340=DIRECTION('',(0.,0.,1.));
#341=DIRECTION('',(1.,0.,0.));
#342=DIRECTION('',(0.,0.,1.));
#343=DIRECTION('',(1.,0.,0.));
#344=DIRECTION('',(0.,0.,1.));
#345=DIRECTION('',(1.,0.,0.));
#346=DIRECTION('',(0.,0.,1.));
#347=DIRECTION('',(1.,0.,0.));
#348=DIRECTION('',(0.,0.,1.));
#349=DIRECTION('',(1.,0.,0.));
#350=DIRECTION('',(0.,0.,-1.));
#351=DIRECTION('',(-1.,0.,0.));
#352=DIRECTION('',(0.,0.,1.));
#353=DIRECTION('',(1.,0.,0.));
#354=DIRECTION('',(0.,0.,1.));
#355=DIRECTION('',(1.,0.,0.));
#356=DIRECTION('',(0.,0.,1.));
#357=DIRECTION('',(1.,0.,0.));
#358=DIRECTION('',(0.,0.,1.));
#359=DIRECTION('',(1.,0.,2.11853966891114E-016));
#360=DIRECTION('',(0.,0.,1.));
#361=DIRECTION('',(1.,0.,0.));
#362=DIRECTION('',(0.,0.,1.));
#363=DIRECTION('',(1.,0.,-2.07378114938725E-017));
#364=DIRECTION('',(0.,0.,1.));
#365=DIRECTION('',(1.,0.,0.));
#366=DIRECTION('',(0.,0.,1.));
#367=DIRECTION('',(1.,0.,0.));
#368=DIRECTION('',(0.,0.,1.));
#369=DIRECTION('',(1.,0.,0.));
#370=DIRECTION('',(0.,0.,-1.));
#371=DIRECTION('',(-1.,0.,6.19834338444654E-017));
#372=DIRECTION('',(0.,0.,1.));
#373=DIRECTION('',(1.,0.,0.));
#374=CARTESIAN_POINT('',(0.,0.,0.));
#375=CARTESIAN_POINT('',(0.,0.,0.));
#376=CARTESIAN_POINT('',(6.86145833333273,0.,0.));
#377=CARTESIAN_POINT('',(0.,-3.8032083333336,0.));
#378=CARTESIAN_POINT('',(0.,0.,-0.352874999999812));
#379=CARTESIAN_POINT('',(7.21433333333312,0.,-0.352874999999812));
#380=CARTESIAN_POINT('',(0.,0.,0.));
#381=CARTESIAN_POINT('',(0.,0.,-1.33308333333343));
#382=CARTESIAN_POINT('',(7.21433333333312,0.,-1.33308333333343));
#383=CARTESIAN_POINT('',(0.,0.,-19.8394166666667));
#384=CARTESIAN_POINT('',(0.,0.,-1.33308333333343));
#385=CARTESIAN_POINT('',(8.1161249999999,0.,-1.33308333333343));
#386=CARTESIAN_POINT('',(0.,-7.21433333333312,-1.33308333333343));
#387=CARTESIAN_POINT('',(0.,0.,-3.60716666666667));
#388=CARTESIAN_POINT('',(11.9999999999999,0.,-3.60716666666667));
#389=CARTESIAN_POINT('',(0.,0.,-1.33308333333343));
#390=CARTESIAN_POINT('',(0.,0.,-19.0894166666667));
#391=CARTESIAN_POINT('',(11.9999999999999,0.,-19.0894166666667));
#392=CARTESIAN_POINT('',(0.,0.,-19.8394166666667));
#393=CARTESIAN_POINT('',(0.,0.,-19.8394166666667));
#394=CARTESIAN_POINT('',(11.2499999999998,0.,-19.8394166666667));
#395=CARTESIAN_POINT('',(0.,0.,-19.0894166666667));
#396=CARTESIAN_POINT('',(0.,-11.2499999999999,-19.8394166666667));
#397=CARTESIAN_POINT('',(0.,0.,-4.99624999999969));
#398=CARTESIAN_POINT('',(9.,0.,-4.99624999999969));
#399=CARTESIAN_POINT('',(0.,0.,-4.99624999999969));
#400=CARTESIAN_POINT('',(12.5,0.,-4.99624999999969));
#401=CARTESIAN_POINT('',(0.,-12.5,-4.99624999999969));
#402=CARTESIAN_POINT('',(0.,0.,-19.9962499999997));
#403=CARTESIAN_POINT('',(9.,0.,-19.9962499999997));
#404=CARTESIAN_POINT('',(0.,0.,-19.8394166666667));
#405=CARTESIAN_POINT('',(0.,0.,-19.9962499999997));
#406=CARTESIAN_POINT('',(12.5,0.,-19.9962499999997));
#407=CARTESIAN_POINT('',(0.,-9.,-19.9962499999997));
#408=CARTESIAN_POINT('',(0.,0.,-19.8394166666667));
#409=CARTESIAN_POINT('',(0.,0.,13.0171666666663));
#410=CARTESIAN_POINT('',(3.72479166666653,0.,13.0171666666663));
#411=CARTESIAN_POINT('',(0.,0.,13.0171666666663));
#412=CARTESIAN_POINT('',(0.,0.,12.5074583333333));
#413=CARTESIAN_POINT('',(3.99924999999973,0.,12.5074583333333));
#414=CARTESIAN_POINT('',(0.,0.,13.0171666666663));
#415=CARTESIAN_POINT('',(0.,0.,1.09783333333326));
#416=CARTESIAN_POINT('',(3.99925000000007,0.,1.09783333333326));
#417=CARTESIAN_POINT('',(0.,0.,-19.8394166666667));
#418=CARTESIAN_POINT('',(0.,0.,0.666541666666264));
#419=CARTESIAN_POINT('',(3.8032083333336,0.,0.666541666666264));
#420=CARTESIAN_POINT('',(0.,0.,1.09783333333326));
#421=CARTESIAN_POINT('',(0.,0.,0.627333333333355));
#422=CARTESIAN_POINT('',(3.76400000000001,0.,0.627333333333355));
#423=CARTESIAN_POINT('',(0.,0.,0.666541666666264));
#424=CARTESIAN_POINT('',(0.,0.,0.0784166666662721));
#425=CARTESIAN_POINT('',(3.76400000000001,0.,0.0784166666662721));
#426=CARTESIAN_POINT('',(0.,0.,-19.8394166666667));
#427=CARTESIAN_POINT('',(0.,0.,0.));
#428=CARTESIAN_POINT('',(3.8032083333336,0.,0.));
#429=CARTESIAN_POINT('',(0.,0.,0.0784166666662721));
#430=CARTESIAN_POINT('',(0.,0.,0.));
#431=MECHANICAL_DESIGN_GEOMETRIC_PRESENTATION_REPRESENTATION('',(#26,#27,
#28),#432);
#432=(
GEOMETRIC_REPRESENTATION_CONTEXT(3)
GLOBAL_UNCERTAINTY_ASSIGNED_CONTEXT((#433))
GLOBAL_UNIT_ASSIGNED_CONTEXT((#439,#435,#434))
REPRESENTATION_CONTEXT('02602349','TOP_LEVEL_ASSEMBLY_PART')
);
#433=UNCERTAINTY_MEASURE_WITH_UNIT(LENGTH_MEASURE(2.E-005),#439,
'DISTANCE_ACCURACY_VALUE','Maximum Tolerance applied to model');
#434=(
NAMED_UNIT(*)
SI_UNIT($,.STERADIAN.)
SOLID_ANGLE_UNIT()
);
#435=(
CONVERSION_BASED_UNIT('DEGREE',#437)
NAMED_UNIT(#436)
PLANE_ANGLE_UNIT()
);
#436=DIMENSIONAL_EXPONENTS(0.,0.,0.,0.,0.,0.,0.);
#437=PLANE_ANGLE_MEASURE_WITH_UNIT(PLANE_ANGLE_MEASURE(0.0174532925),#438);
#438=(
NAMED_UNIT(*)
PLANE_ANGLE_UNIT()
SI_UNIT($,.RADIAN.)
);
#439=(
LENGTH_UNIT()
NAMED_UNIT(*)
SI_UNIT(.MILLI.,.METRE.)
);
ENDSEC;
END-ISO-10303-21;
