ISO-10303-21;
HEADER;
/* Generated by software containing ST-Developer
 * from STEP Tools, Inc. (www.steptools.com) 
 */
/* OPTION: using custom schema-name function */

FILE_DESCRIPTION(
/* description */ (''),
/* implementation_level */ '2;1');

FILE_NAME(
/* name */ '02602348.stp',
/* time_stamp */ '2012-03-30T08:21:03+06:00',
/* author */ (''),
/* organization */ (''),
/* preprocessor_version */ 'ST-DEVELOPER v11',
/* originating_system */ 'SIEMENS PLM Software NX 7.5',
/* authorisation */ '');

FILE_SCHEMA (('AUTOMOTIVE_DESIGN { 1 0 10303 214 1 1 1 1 }'));
ENDSEC;

DATA;
#10=SHAPE_REPRESENTATION_RELATIONSHIP('None',
'relationship between inpuE848ofbb-None and inpuE848ofbb-None',#22,#11);
#11=ADVANCED_BREP_SHAPE_REPRESENTATION('inpuE848ofbb-None',(#49,#50,#51),
#412);
#12=SHAPE_DEFINITION_REPRESENTATION(#13,#22);
#13=PRODUCT_DEFINITION_SHAPE('','',#14);
#14=PRODUCT_DEFINITION(' ','',#16,#15);
#15=PRODUCT_DEFINITION_CONTEXT('part definition',#21,'design');
#16=PRODUCT_DEFINITION_FORMATION_WITH_SPECIFIED_SOURCE(' ',' ',#18,.NOT_KNOWN.);
#17=PRODUCT_RELATED_PRODUCT_CATEGORY('part','',(#18));
#18=PRODUCT('inpuE848ofbb','inpuE848ofbb',' ',(#19));
#19=PRODUCT_CONTEXT(' ',#21,'mechanical');
#20=APPLICATION_PROTOCOL_DEFINITION('international standard',
'automotive_design',2001,#21);
#21=APPLICATION_CONTEXT(
'core data for automotive mechanical design processes');
#22=SHAPE_REPRESENTATION('inpuE848ofbb-None',(#246),#412);
#23=PRESENTATION_LAYER_ASSIGNMENT('2','Layer 2',(#49));
#24=PRESENTATION_LAYER_ASSIGNMENT('3','Layer 3',(#50));
#25=PRESENTATION_LAYER_ASSIGNMENT('1','Layer 1',(#51));
#26=STYLED_ITEM('',(#29),#49);
#27=STYLED_ITEM('',(#30),#50);
#28=STYLED_ITEM('',(#31),#51);
#29=PRESENTATION_STYLE_ASSIGNMENT((#32));
#30=PRESENTATION_STYLE_ASSIGNMENT((#33));
#31=PRESENTATION_STYLE_ASSIGNMENT((#34));
#32=SURFACE_STYLE_USAGE(.BOTH.,#35);
#33=SURFACE_STYLE_USAGE(.BOTH.,#36);
#34=SURFACE_STYLE_USAGE(.BOTH.,#37);
#35=SURFACE_SIDE_STYLE('',(#38));
#36=SURFACE_SIDE_STYLE('',(#39));
#37=SURFACE_SIDE_STYLE('',(#40));
#38=SURFACE_STYLE_FILL_AREA(#41);
#39=SURFACE_STYLE_FILL_AREA(#42);
#40=SURFACE_STYLE_FILL_AREA(#43);
#41=FILL_AREA_STYLE('',(#44));
#42=FILL_AREA_STYLE('',(#45));
#43=FILL_AREA_STYLE('',(#46));
#44=FILL_AREA_STYLE_COLOUR('',#47);
#45=FILL_AREA_STYLE_COLOUR('',#48);
#46=FILL_AREA_STYLE_COLOUR('',#47);
#47=COLOUR_RGB('Medium Gray',0.490196078431373,0.490196078431373,0.490196078431373);
#48=COLOUR_RGB('Light Gray',0.8,0.8,0.8);
#49=MANIFOLD_SOLID_BREP('',#52);
#50=MANIFOLD_SOLID_BREP('',#53);
#51=MANIFOLD_SOLID_BREP('',#54);
#52=CLOSED_SHELL('',(#97,#98,#99,#100,#101,#102,#103,#104));
#53=CLOSED_SHELL('',(#105,#106,#107,#108));
#54=CLOSED_SHELL('',(#109,#110,#111,#112,#113,#114,#115));
#55=CYLINDRICAL_SURFACE('',#254,7.17512499999975);
#56=CYLINDRICAL_SURFACE('',#260,11.4488333333333);
#57=CYLINDRICAL_SURFACE('',#264,11.9999999999998);
#58=CYLINDRICAL_SURFACE('',#268,8.49999999999977);
#59=CYLINDRICAL_SURFACE('',#275,3.99924999999985);
#60=CYLINDRICAL_SURFACE('',#281,3.80320833333326);
#61=CONICAL_SURFACE('',#252,6.82224999999971,45.0000000000185);
#62=CONICAL_SURFACE('',#258,8.03770833333317,59.6208739886303);
#63=CONICAL_SURFACE('',#261,11.4488333333333,45.0000000000001);
#64=CONICAL_SURFACE('',#273,3.68558333333294,33.6900675259289);
#65=CONICAL_SURFACE('',#277,3.99924999999985,21.8014094862717);
#66=CONICAL_SURFACE('',#279,3.84241666666685,45.0000000009947);
#67=FACE_BOUND('',#129,.T.);
#68=FACE_BOUND('',#130,.T.);
#69=FACE_BOUND('',#131,.T.);
#70=FACE_BOUND('',#132,.T.);
#71=FACE_BOUND('',#133,.T.);
#72=FACE_BOUND('',#134,.T.);
#73=FACE_BOUND('',#135,.T.);
#74=FACE_BOUND('',#136,.T.);
#75=FACE_BOUND('',#137,.T.);
#76=FACE_BOUND('',#138,.T.);
#77=FACE_BOUND('',#139,.T.);
#78=FACE_BOUND('',#140,.T.);
#79=FACE_BOUND('',#141,.T.);
#80=FACE_BOUND('',#142,.T.);
#81=FACE_BOUND('',#143,.T.);
#82=FACE_BOUND('',#144,.T.);
#83=FACE_BOUND('',#145,.T.);
#84=FACE_BOUND('',#146,.T.);
#85=FACE_BOUND('',#147,.T.);
#86=FACE_BOUND('',#148,.T.);
#87=FACE_BOUND('',#150,.T.);
#88=FACE_BOUND('',#151,.T.);
#89=FACE_BOUND('',#152,.T.);
#90=FACE_BOUND('',#153,.T.);
#91=FACE_BOUND('',#154,.T.);
#92=FACE_BOUND('',#155,.T.);
#93=FACE_BOUND('',#156,.T.);
#94=FACE_BOUND('',#157,.T.);
#95=FACE_BOUND('',#158,.T.);
#96=FACE_BOUND('',#159,.T.);
#97=ADVANCED_FACE('',(#123),#116,.T.);
#98=ADVANCED_FACE('',(#124),#117,.T.);
#99=ADVANCED_FACE('',(#67,#68),#61,.T.);
#100=ADVANCED_FACE('',(#69,#70),#55,.T.);
#101=ADVANCED_FACE('',(#71,#72),#118,.T.);
#102=ADVANCED_FACE('',(#73,#74),#62,.T.);
#103=ADVANCED_FACE('',(#75,#76),#56,.T.);
#104=ADVANCED_FACE('',(#77,#78),#63,.T.);
#105=ADVANCED_FACE('',(#79,#80),#57,.T.);
#106=ADVANCED_FACE('',(#81,#82),#119,.F.);
#107=ADVANCED_FACE('',(#83,#84),#58,.F.);
#108=ADVANCED_FACE('',(#85,#86),#120,.F.);
#109=ADVANCED_FACE('',(#125),#121,.T.);
#110=ADVANCED_FACE('',(#87,#88),#64,.T.);
#111=ADVANCED_FACE('',(#89,#90),#59,.T.);
#112=ADVANCED_FACE('',(#91,#92),#65,.T.);
#113=ADVANCED_FACE('',(#93,#94),#66,.T.);
#114=ADVANCED_FACE('',(#95,#96),#60,.T.);
#115=ADVANCED_FACE('',(#126),#122,.F.);
#116=PLANE('',#248);
#117=PLANE('',#250);
#118=PLANE('',#256);
#119=PLANE('',#266);
#120=PLANE('',#269);
#121=PLANE('',#271);
#122=PLANE('',#282);
#123=FACE_OUTER_BOUND('',#127,.T.);
#124=FACE_OUTER_BOUND('',#128,.T.);
#125=FACE_OUTER_BOUND('',#149,.T.);
#126=FACE_OUTER_BOUND('',#160,.T.);
#127=EDGE_LOOP('',(#161));
#128=EDGE_LOOP('',(#162));
#129=EDGE_LOOP('',(#163));
#130=EDGE_LOOP('',(#164));
#131=EDGE_LOOP('',(#165));
#132=EDGE_LOOP('',(#166));
#133=EDGE_LOOP('',(#167));
#134=EDGE_LOOP('',(#168));
#135=EDGE_LOOP('',(#169));
#136=EDGE_LOOP('',(#170));
#137=EDGE_LOOP('',(#171));
#138=EDGE_LOOP('',(#172));
#139=EDGE_LOOP('',(#173));
#140=EDGE_LOOP('',(#174));
#141=EDGE_LOOP('',(#175));
#142=EDGE_LOOP('',(#176));
#143=EDGE_LOOP('',(#177));
#144=EDGE_LOOP('',(#178));
#145=EDGE_LOOP('',(#179));
#146=EDGE_LOOP('',(#180));
#147=EDGE_LOOP('',(#181));
#148=EDGE_LOOP('',(#182));
#149=EDGE_LOOP('',(#183));
#150=EDGE_LOOP('',(#184));
#151=EDGE_LOOP('',(#185));
#152=EDGE_LOOP('',(#186));
#153=EDGE_LOOP('',(#187));
#154=EDGE_LOOP('',(#188));
#155=EDGE_LOOP('',(#189));
#156=EDGE_LOOP('',(#190));
#157=EDGE_LOOP('',(#191));
#158=EDGE_LOOP('',(#192));
#159=EDGE_LOOP('',(#193));
#160=EDGE_LOOP('',(#194));
#161=ORIENTED_EDGE('',*,*,#212,.F.);
#162=ORIENTED_EDGE('',*,*,#213,.T.);
#163=ORIENTED_EDGE('',*,*,#214,.T.);
#164=ORIENTED_EDGE('',*,*,#213,.F.);
#165=ORIENTED_EDGE('',*,*,#215,.T.);
#166=ORIENTED_EDGE('',*,*,#214,.F.);
#167=ORIENTED_EDGE('',*,*,#216,.T.);
#168=ORIENTED_EDGE('',*,*,#215,.F.);
#169=ORIENTED_EDGE('',*,*,#217,.T.);
#170=ORIENTED_EDGE('',*,*,#216,.F.);
#171=ORIENTED_EDGE('',*,*,#218,.T.);
#172=ORIENTED_EDGE('',*,*,#217,.F.);
#173=ORIENTED_EDGE('',*,*,#212,.T.);
#174=ORIENTED_EDGE('',*,*,#218,.F.);
#175=ORIENTED_EDGE('',*,*,#219,.F.);
#176=ORIENTED_EDGE('',*,*,#220,.T.);
#177=ORIENTED_EDGE('',*,*,#221,.F.);
#178=ORIENTED_EDGE('',*,*,#219,.T.);
#179=ORIENTED_EDGE('',*,*,#222,.F.);
#180=ORIENTED_EDGE('',*,*,#221,.T.);
#181=ORIENTED_EDGE('',*,*,#220,.F.);
#182=ORIENTED_EDGE('',*,*,#222,.T.);
#183=ORIENTED_EDGE('',*,*,#223,.T.);
#184=ORIENTED_EDGE('',*,*,#224,.T.);
#185=ORIENTED_EDGE('',*,*,#223,.F.);
#186=ORIENTED_EDGE('',*,*,#225,.T.);
#187=ORIENTED_EDGE('',*,*,#224,.F.);
#188=ORIENTED_EDGE('',*,*,#226,.T.);
#189=ORIENTED_EDGE('',*,*,#225,.F.);
#190=ORIENTED_EDGE('',*,*,#227,.T.);
#191=ORIENTED_EDGE('',*,*,#226,.F.);
#192=ORIENTED_EDGE('',*,*,#228,.T.);
#193=ORIENTED_EDGE('',*,*,#227,.F.);
#194=ORIENTED_EDGE('',*,*,#228,.F.);
#195=VERTEX_POINT('',#359);
#196=VERTEX_POINT('',#362);
#197=VERTEX_POINT('',#365);
#198=VERTEX_POINT('',#368);
#199=VERTEX_POINT('',#371);
#200=VERTEX_POINT('',#374);
#201=VERTEX_POINT('',#377);
#202=VERTEX_POINT('',#381);
#203=VERTEX_POINT('',#383);
#204=VERTEX_POINT('',#386);
#205=VERTEX_POINT('',#389);
#206=VERTEX_POINT('',#393);
#207=VERTEX_POINT('',#396);
#208=VERTEX_POINT('',#399);
#209=VERTEX_POINT('',#402);
#210=VERTEX_POINT('',#405);
#211=VERTEX_POINT('',#408);
#212=EDGE_CURVE('',#195,#195,#229,.T.);
#213=EDGE_CURVE('',#196,#196,#230,.T.);
#214=EDGE_CURVE('',#197,#197,#231,.T.);
#215=EDGE_CURVE('',#198,#198,#232,.T.);
#216=EDGE_CURVE('',#199,#199,#233,.T.);
#217=EDGE_CURVE('',#200,#200,#234,.T.);
#218=EDGE_CURVE('',#201,#201,#235,.T.);
#219=EDGE_CURVE('',#202,#202,#236,.T.);
#220=EDGE_CURVE('',#203,#203,#237,.T.);
#221=EDGE_CURVE('',#204,#204,#238,.T.);
#222=EDGE_CURVE('',#205,#205,#239,.T.);
#223=EDGE_CURVE('',#206,#206,#240,.T.);
#224=EDGE_CURVE('',#207,#207,#241,.T.);
#225=EDGE_CURVE('',#208,#208,#242,.T.);
#226=EDGE_CURVE('',#209,#209,#243,.T.);
#227=EDGE_CURVE('',#210,#210,#244,.T.);
#228=EDGE_CURVE('',#211,#211,#245,.T.);
#229=CIRCLE('',#247,10.6988333333333);
#230=CIRCLE('',#249,6.82224999999971);
#231=CIRCLE('',#251,7.17512499999975);
#232=CIRCLE('',#253,7.17512499999975);
#233=CIRCLE('',#255,8.03770833333317);
#234=CIRCLE('',#257,11.4488333333333);
#235=CIRCLE('',#259,11.4488333333333);
#236=CIRCLE('',#262,11.9999999999998);
#237=CIRCLE('',#263,11.9999999999998);
#238=CIRCLE('',#265,8.49999999999977);
#239=CIRCLE('',#267,8.49999999999977);
#240=CIRCLE('',#270,3.68558333333294);
#241=CIRCLE('',#272,3.99924999999985);
#242=CIRCLE('',#274,3.99924999999985);
#243=CIRCLE('',#276,3.84241666666685);
#244=CIRCLE('',#278,3.80320833333326);
#245=CIRCLE('',#280,3.80320833333326);
#246=AXIS2_PLACEMENT_3D('',#357,#283,#284);
#247=AXIS2_PLACEMENT_3D('',#358,#285,#286);
#248=AXIS2_PLACEMENT_3D('',#360,#287,#288);
#249=AXIS2_PLACEMENT_3D('',#361,#289,#290);
#250=AXIS2_PLACEMENT_3D('',#363,#291,#292);
#251=AXIS2_PLACEMENT_3D('',#364,#293,#294);
#252=AXIS2_PLACEMENT_3D('',#366,#295,#296);
#253=AXIS2_PLACEMENT_3D('',#367,#297,#298);
#254=AXIS2_PLACEMENT_3D('',#369,#299,#300);
#255=AXIS2_PLACEMENT_3D('',#370,#301,#302);
#256=AXIS2_PLACEMENT_3D('',#372,#303,#304);
#257=AXIS2_PLACEMENT_3D('',#373,#305,#306);
#258=AXIS2_PLACEMENT_3D('',#375,#307,#308);
#259=AXIS2_PLACEMENT_3D('',#376,#309,#310);
#260=AXIS2_PLACEMENT_3D('',#378,#311,#312);
#261=AXIS2_PLACEMENT_3D('',#379,#313,#314);
#262=AXIS2_PLACEMENT_3D('',#380,#315,#316);
#263=AXIS2_PLACEMENT_3D('',#382,#317,#318);
#264=AXIS2_PLACEMENT_3D('',#384,#319,#320);
#265=AXIS2_PLACEMENT_3D('',#385,#321,#322);
#266=AXIS2_PLACEMENT_3D('',#387,#323,#324);
#267=AXIS2_PLACEMENT_3D('',#388,#325,#326);
#268=AXIS2_PLACEMENT_3D('',#390,#327,#328);
#269=AXIS2_PLACEMENT_3D('',#391,#329,#330);
#270=AXIS2_PLACEMENT_3D('',#392,#331,#332);
#271=AXIS2_PLACEMENT_3D('',#394,#333,#334);
#272=AXIS2_PLACEMENT_3D('',#395,#335,#336);
#273=AXIS2_PLACEMENT_3D('',#397,#337,#338);
#274=AXIS2_PLACEMENT_3D('',#398,#339,#340);
#275=AXIS2_PLACEMENT_3D('',#400,#341,#342);
#276=AXIS2_PLACEMENT_3D('',#401,#343,#344);
#277=AXIS2_PLACEMENT_3D('',#403,#345,#346);
#278=AXIS2_PLACEMENT_3D('',#404,#347,#348);
#279=AXIS2_PLACEMENT_3D('',#406,#349,#350);
#280=AXIS2_PLACEMENT_3D('',#407,#351,#352);
#281=AXIS2_PLACEMENT_3D('',#409,#353,#354);
#282=AXIS2_PLACEMENT_3D('',#410,#355,#356);
#283=DIRECTION('',(0.,0.,1.));
#284=DIRECTION('',(1.,0.,0.));
#285=DIRECTION('',(0.,0.,1.));
#286=DIRECTION('',(1.,0.,0.));
#287=DIRECTION('',(0.,0.,-1.));
#288=DIRECTION('',(-1.,0.,0.));
#289=DIRECTION('',(0.,0.,1.));
#290=DIRECTION('',(1.,0.,0.));
#291=DIRECTION('',(0.,0.,1.));
#292=DIRECTION('',(1.,0.,0.));
#293=DIRECTION('',(0.,0.,1.));
#294=DIRECTION('',(1.,0.,0.));
#295=DIRECTION('',(0.,0.,-1.));
#296=DIRECTION('',(-1.,0.,0.));
#297=DIRECTION('',(0.,0.,1.));
#298=DIRECTION('',(1.,0.,0.));
#299=DIRECTION('',(0.,0.,1.));
#300=DIRECTION('',(1.,0.,0.));
#301=DIRECTION('',(0.,0.,1.));
#302=DIRECTION('',(1.,0.,0.));
#303=DIRECTION('',(0.,0.,1.));
#304=DIRECTION('',(1.,0.,0.));
#305=DIRECTION('',(0.,0.,1.));
#306=DIRECTION('',(1.,0.,0.));
#307=DIRECTION('',(0.,0.,-1.));
#308=DIRECTION('',(-1.,0.,2.83398615984655E-017));
#309=DIRECTION('',(0.,0.,1.));
#310=DIRECTION('',(1.,0.,0.));
#311=DIRECTION('',(0.,0.,1.));
#312=DIRECTION('',(1.,0.,0.));
#313=DIRECTION('',(0.,0.,1.));
#314=DIRECTION('',(1.,0.,-4.11621053397592E-017));
#315=DIRECTION('',(0.,0.,1.));
#316=DIRECTION('',(1.,0.,0.));
#317=DIRECTION('',(0.,0.,1.));
#318=DIRECTION('',(1.,0.,0.));
#319=DIRECTION('',(0.,0.,1.));
#320=DIRECTION('',(1.,0.,0.));
#321=DIRECTION('',(0.,0.,1.));
#322=DIRECTION('',(1.,0.,0.));
#323=DIRECTION('',(0.,0.,-1.));
#324=DIRECTION('',(-1.,0.,0.));
#325=DIRECTION('',(0.,0.,1.));
#326=DIRECTION('',(1.,0.,0.));
#327=DIRECTION('',(0.,0.,1.));
#328=DIRECTION('',(1.,0.,0.));
#329=DIRECTION('',(0.,0.,1.));
#330=DIRECTION('',(1.,0.,0.));
#331=DIRECTION('',(0.,0.,1.));
#332=DIRECTION('',(1.,0.,0.));
#333=DIRECTION('',(0.,0.,1.));
#334=DIRECTION('',(1.,0.,0.));
#335=DIRECTION('',(0.,0.,1.));
#336=DIRECTION('',(1.,0.,0.));
#337=DIRECTION('',(0.,0.,-1.));
#338=DIRECTION('',(-1.,0.,-4.65800220222163E-017));
#339=DIRECTION('',(0.,0.,1.));
#340=DIRECTION('',(1.,0.,0.));
#341=DIRECTION('',(0.,0.,1.));
#342=DIRECTION('',(1.,0.,0.));
#343=DIRECTION('',(0.,0.,1.));
#344=DIRECTION('',(1.,0.,0.));
#345=DIRECTION('',(0.,0.,1.));
#346=DIRECTION('',(1.,0.,1.88930630300145E-016));
#347=DIRECTION('',(0.,0.,1.));
#348=DIRECTION('',(1.,0.,0.));
#349=DIRECTION('',(0.,0.,1.));
#350=DIRECTION('',(1.,0.,-2.073700151078E-017));
#351=DIRECTION('',(0.,0.,1.));
#352=DIRECTION('',(1.,0.,0.));
#353=DIRECTION('',(0.,0.,1.));
#354=DIRECTION('',(1.,0.,0.));
#355=DIRECTION('',(0.,0.,1.));
#356=DIRECTION('',(1.,0.,0.));
#357=CARTESIAN_POINT('',(0.,0.,0.));
#358=CARTESIAN_POINT('',(0.,0.,-19.878625000001));
#359=CARTESIAN_POINT('',(10.6988333333333,0.,-19.878625000001));
#360=CARTESIAN_POINT('',(0.,-10.6988333333333,-19.878625000001));
#361=CARTESIAN_POINT('',(0.,0.,0.));
#362=CARTESIAN_POINT('',(6.82224999999971,0.,0.));
#363=CARTESIAN_POINT('',(0.,-3.80320833333326,0.));
#364=CARTESIAN_POINT('',(0.,0.,-0.352874999999812));
#365=CARTESIAN_POINT('',(7.17512499999975,0.,-0.352874999999812));
#366=CARTESIAN_POINT('',(0.,0.,0.));
#367=CARTESIAN_POINT('',(0.,0.,-1.3722916666668));
#368=CARTESIAN_POINT('',(7.17512499999975,0.,-1.3722916666668));
#369=CARTESIAN_POINT('',(0.,0.,-19.878625000001));
#370=CARTESIAN_POINT('',(0.,0.,-1.3722916666668));
#371=CARTESIAN_POINT('',(8.03770833333317,0.,-1.3722916666668));
#372=CARTESIAN_POINT('',(0.,-7.17512499999975,-1.3722916666668));
#373=CARTESIAN_POINT('',(0.,0.,-3.37191666666695));
#374=CARTESIAN_POINT('',(11.4488333333333,0.,-3.37191666666695));
#375=CARTESIAN_POINT('',(0.,0.,-1.3722916666668));
#376=CARTESIAN_POINT('',(0.,0.,-19.128625000001));
#377=CARTESIAN_POINT('',(11.4488333333333,0.,-19.128625000001));
#378=CARTESIAN_POINT('',(0.,0.,-19.878625000001));
#379=CARTESIAN_POINT('',(0.,0.,-19.128625000001));
#380=CARTESIAN_POINT('',(0.,0.,-5.03545833333396));
#381=CARTESIAN_POINT('',(11.9999999999998,0.,-5.03545833333396));
#382=CARTESIAN_POINT('',(0.,0.,-20.035458333334));
#383=CARTESIAN_POINT('',(11.9999999999998,0.,-20.035458333334));
#384=CARTESIAN_POINT('',(0.,0.,-19.878625000001));
#385=CARTESIAN_POINT('',(0.,0.,-5.03545833333396));
#386=CARTESIAN_POINT('',(8.49999999999977,0.,-5.03545833333396));
#387=CARTESIAN_POINT('',(0.,-11.9999999999998,-5.03545833333396));
#388=CARTESIAN_POINT('',(0.,0.,-20.035458333334));
#389=CARTESIAN_POINT('',(8.49999999999977,0.,-20.035458333334));
#390=CARTESIAN_POINT('',(0.,0.,-19.878625000001));
#391=CARTESIAN_POINT('',(0.,-8.49999999999977,-20.035458333334));
#392=CARTESIAN_POINT('',(0.,0.,12.9779583333341));
#393=CARTESIAN_POINT('',(3.68558333333294,0.,12.9779583333341));
#394=CARTESIAN_POINT('',(0.,0.,12.9779583333341));
#395=CARTESIAN_POINT('',(0.,0.,12.5074583333328));
#396=CARTESIAN_POINT('',(3.99924999999985,0.,12.5074583333328));
#397=CARTESIAN_POINT('',(0.,0.,12.9779583333341));
#398=CARTESIAN_POINT('',(0.,0.,1.05862500000035));
#399=CARTESIAN_POINT('',(3.99924999999985,0.,1.05862500000035));
#400=CARTESIAN_POINT('',(0.,0.,-19.878625000001));
#401=CARTESIAN_POINT('',(0.,0.,0.666541666666264));
#402=CARTESIAN_POINT('',(3.84241666666685,0.,0.666541666666264));
#403=CARTESIAN_POINT('',(0.,0.,1.05862500000035));
#404=CARTESIAN_POINT('',(0.,0.,0.627333333334035));
#405=CARTESIAN_POINT('',(3.80320833333326,0.,0.627333333334035));
#406=CARTESIAN_POINT('',(0.,0.,0.666541666666264));
#407=CARTESIAN_POINT('',(0.,0.,0.));
#408=CARTESIAN_POINT('',(3.80320833333326,0.,0.));
#409=CARTESIAN_POINT('',(0.,0.,-19.878625000001));
#410=CARTESIAN_POINT('',(0.,0.,0.));
#411=MECHANICAL_DESIGN_GEOMETRIC_PRESENTATION_REPRESENTATION('',(#26,#27,
#28),#412);
#412=(
GEOMETRIC_REPRESENTATION_CONTEXT(3)
GLOBAL_UNCERTAINTY_ASSIGNED_CONTEXT((#413))
GLOBAL_UNIT_ASSIGNED_CONTEXT((#419,#415,#414))
REPRESENTATION_CONTEXT('02602348','TOP_LEVEL_ASSEMBLY_PART')
);
#413=UNCERTAINTY_MEASURE_WITH_UNIT(LENGTH_MEASURE(2.E-005),#419,
'DISTANCE_ACCURACY_VALUE','Maximum Tolerance applied to model');
#414=(
NAMED_UNIT(*)
SI_UNIT($,.STERADIAN.)
SOLID_ANGLE_UNIT()
);
#415=(
CONVERSION_BASED_UNIT('DEGREE',#417)
NAMED_UNIT(#416)
PLANE_ANGLE_UNIT()
);
#416=DIMENSIONAL_EXPONENTS(0.,0.,0.,0.,0.,0.,0.);
#417=PLANE_ANGLE_MEASURE_WITH_UNIT(PLANE_ANGLE_MEASURE(0.0174532925),#418);
#418=(
NAMED_UNIT(*)
PLANE_ANGLE_UNIT()
SI_UNIT($,.RADIAN.)
);
#419=(
LENGTH_UNIT()
NAMED_UNIT(*)
SI_UNIT(.MILLI.,.METRE.)
);
ENDSEC;
END-ISO-10303-21;
