ISO-10303-21;
HEADER;
/* Generated by software containing ST-Developer
 * from STEP Tools, Inc. (www.steptools.com) 
 */
/* OPTION: using custom schema-name function */

FILE_DESCRIPTION(
/* description */ (''),
/* implementation_level */ '2;1');

FILE_NAME(
/* name */ '02602336.stp',
/* time_stamp */ '2012-03-29T16:35:15+05:00',
/* author */ (''),
/* organization */ (''),
/* preprocessor_version */ 'ST-DEVELOPER v11',
/* originating_system */ 'SIEMENS PLM Software NX 7.5',
/* authorisation */ '');

FILE_SCHEMA (('AUTOMOTIVE_DESIGN { 1 0 10303 214 1 1 1 1 }'));
ENDSEC;

DATA;
#10=SHAPE_REPRESENTATION_RELATIONSHIP('None',
'relationship between inpuC3D1mmxc-None and inpuC3D1mmxc-None',#22,#11);
#11=ADVANCED_BREP_SHAPE_REPRESENTATION('inpuC3D1mmxc-None',(#49,#50,#51),
#472);
#12=SHAPE_DEFINITION_REPRESENTATION(#13,#22);
#13=PRODUCT_DEFINITION_SHAPE('','',#14);
#14=PRODUCT_DEFINITION(' ','',#16,#15);
#15=PRODUCT_DEFINITION_CONTEXT('part definition',#21,'design');
#16=PRODUCT_DEFINITION_FORMATION_WITH_SPECIFIED_SOURCE(' ',' ',#18,.NOT_KNOWN.);
#17=PRODUCT_RELATED_PRODUCT_CATEGORY('part','',(#18));
#18=PRODUCT('inpuC3D1mmxc','inpuC3D1mmxc',' ',(#19));
#19=PRODUCT_CONTEXT(' ',#21,'mechanical');
#20=APPLICATION_PROTOCOL_DEFINITION('international standard',
'automotive_design',2001,#21);
#21=APPLICATION_CONTEXT(
'core data for automotive mechanical design processes');
#22=SHAPE_REPRESENTATION('inpuC3D1mmxc-None',(#279),#472);
#23=PRESENTATION_LAYER_ASSIGNMENT('1','Layer 1',(#49));
#24=PRESENTATION_LAYER_ASSIGNMENT('3','Layer 3',(#50));
#25=PRESENTATION_LAYER_ASSIGNMENT('2','Layer 2',(#51));
#26=STYLED_ITEM('',(#29),#49);
#27=STYLED_ITEM('',(#30),#50);
#28=STYLED_ITEM('',(#31),#51);
#29=PRESENTATION_STYLE_ASSIGNMENT((#32));
#30=PRESENTATION_STYLE_ASSIGNMENT((#33));
#31=PRESENTATION_STYLE_ASSIGNMENT((#34));
#32=SURFACE_STYLE_USAGE(.BOTH.,#35);
#33=SURFACE_STYLE_USAGE(.BOTH.,#36);
#34=SURFACE_STYLE_USAGE(.BOTH.,#37);
#35=SURFACE_SIDE_STYLE('',(#38));
#36=SURFACE_SIDE_STYLE('',(#39));
#37=SURFACE_SIDE_STYLE('',(#40));
#38=SURFACE_STYLE_FILL_AREA(#41);
#39=SURFACE_STYLE_FILL_AREA(#42);
#40=SURFACE_STYLE_FILL_AREA(#43);
#41=FILL_AREA_STYLE('',(#44));
#42=FILL_AREA_STYLE('',(#45));
#43=FILL_AREA_STYLE('',(#46));
#44=FILL_AREA_STYLE_COLOUR('',#47);
#45=FILL_AREA_STYLE_COLOUR('',#48);
#46=FILL_AREA_STYLE_COLOUR('',#47);
#47=COLOUR_RGB('Medium Gray',0.490196078431373,0.490196078431373,0.490196078431373);
#48=COLOUR_RGB('Light Gray',0.8,0.8,0.8);
#49=MANIFOLD_SOLID_BREP('',#52);
#50=MANIFOLD_SOLID_BREP('',#53);
#51=MANIFOLD_SOLID_BREP('',#54);
#52=CLOSED_SHELL('',(#73,#74,#75,#76,#77,#78,#79,#80,#81,#82));
#53=CLOSED_SHELL('',(#83,#84,#85,#86));
#54=CLOSED_SHELL('',(#87,#88,#89,#90,#91,#92,#93,#94));
#55=PLANE('',#297);
#56=PLANE('',#298);
#57=PLANE('',#303);
#58=PLANE('',#306);
#59=PLANE('',#308);
#60=PLANE('',#310);
#61=PLANE('',#318);
#62=FACE_OUTER_BOUND('',#155,.T.);
#63=FACE_OUTER_BOUND('',#156,.T.);
#64=FACE_OUTER_BOUND('',#165,.T.);
#65=FACE_OUTER_BOUND('',#166,.T.);
#66=CONICAL_SURFACE('',#284,3.80320833333326,26.565051177078);
#67=CONICAL_SURFACE('',#288,3.7639999999999,45.);
#68=CONICAL_SURFACE('',#292,3.80320833333326,26.5650511771045);
#69=CONICAL_SURFACE('',#296,3.99924999999996,30.2564371635354);
#70=CONICAL_SURFACE('',#312,8.26791666666645,45.);
#71=CONICAL_SURFACE('',#316,9.01791666666645,60.802513953919);
#72=CONICAL_SURFACE('',#321,7.214333333333,44.9999999999816);
#73=ADVANCED_FACE('',(#103,#104),#95,.T.);
#74=ADVANCED_FACE('',(#105,#106),#66,.T.);
#75=ADVANCED_FACE('',(#107,#108),#96,.T.);
#76=ADVANCED_FACE('',(#109,#110),#67,.T.);
#77=ADVANCED_FACE('',(#111,#112),#97,.T.);
#78=ADVANCED_FACE('',(#113,#114),#68,.T.);
#79=ADVANCED_FACE('',(#115,#116),#98,.T.);
#80=ADVANCED_FACE('',(#117,#118),#69,.T.);
#81=ADVANCED_FACE('',(#62),#55,.F.);
#82=ADVANCED_FACE('',(#63),#56,.F.);
#83=ADVANCED_FACE('',(#119,#120),#99,.T.);
#84=ADVANCED_FACE('',(#121,#122),#57,.T.);
#85=ADVANCED_FACE('',(#123,#124),#100,.F.);
#86=ADVANCED_FACE('',(#125,#126),#58,.T.);
#87=ADVANCED_FACE('',(#64),#59,.T.);
#88=ADVANCED_FACE('',(#65),#60,.F.);
#89=ADVANCED_FACE('',(#127,#128),#70,.T.);
#90=ADVANCED_FACE('',(#129,#130),#101,.T.);
#91=ADVANCED_FACE('',(#131,#132),#71,.T.);
#92=ADVANCED_FACE('',(#133,#134),#61,.F.);
#93=ADVANCED_FACE('',(#135,#136),#102,.T.);
#94=ADVANCED_FACE('',(#137,#138),#72,.T.);
#95=CYLINDRICAL_SURFACE('',#282,3.80320833333326);
#96=CYLINDRICAL_SURFACE('',#286,3.7639999999999);
#97=CYLINDRICAL_SURFACE('',#290,3.80320833333326);
#98=CYLINDRICAL_SURFACE('',#294,3.99924999999996);
#99=CYLINDRICAL_SURFACE('',#301,9.5);
#100=CYLINDRICAL_SURFACE('',#305,6.);
#101=CYLINDRICAL_SURFACE('',#314,9.01791666666645);
#102=CYLINDRICAL_SURFACE('',#320,7.214333333333);
#103=FACE_BOUND('',#139,.T.);
#104=FACE_BOUND('',#140,.T.);
#105=FACE_BOUND('',#141,.T.);
#106=FACE_BOUND('',#142,.T.);
#107=FACE_BOUND('',#143,.T.);
#108=FACE_BOUND('',#144,.T.);
#109=FACE_BOUND('',#145,.T.);
#110=FACE_BOUND('',#146,.T.);
#111=FACE_BOUND('',#147,.T.);
#112=FACE_BOUND('',#148,.T.);
#113=FACE_BOUND('',#149,.T.);
#114=FACE_BOUND('',#150,.T.);
#115=FACE_BOUND('',#151,.T.);
#116=FACE_BOUND('',#152,.T.);
#117=FACE_BOUND('',#153,.T.);
#118=FACE_BOUND('',#154,.T.);
#119=FACE_BOUND('',#157,.T.);
#120=FACE_BOUND('',#158,.T.);
#121=FACE_BOUND('',#159,.T.);
#122=FACE_BOUND('',#160,.T.);
#123=FACE_BOUND('',#161,.T.);
#124=FACE_BOUND('',#162,.T.);
#125=FACE_BOUND('',#163,.T.);
#126=FACE_BOUND('',#164,.T.);
#127=FACE_BOUND('',#167,.T.);
#128=FACE_BOUND('',#168,.T.);
#129=FACE_BOUND('',#169,.T.);
#130=FACE_BOUND('',#170,.T.);
#131=FACE_BOUND('',#171,.T.);
#132=FACE_BOUND('',#172,.T.);
#133=FACE_BOUND('',#173,.T.);
#134=FACE_BOUND('',#174,.T.);
#135=FACE_BOUND('',#175,.T.);
#136=FACE_BOUND('',#176,.T.);
#137=FACE_BOUND('',#177,.T.);
#138=FACE_BOUND('',#178,.T.);
#139=EDGE_LOOP('',(#179));
#140=EDGE_LOOP('',(#180));
#141=EDGE_LOOP('',(#181));
#142=EDGE_LOOP('',(#182));
#143=EDGE_LOOP('',(#183));
#144=EDGE_LOOP('',(#184));
#145=EDGE_LOOP('',(#185));
#146=EDGE_LOOP('',(#186));
#147=EDGE_LOOP('',(#187));
#148=EDGE_LOOP('',(#188));
#149=EDGE_LOOP('',(#189));
#150=EDGE_LOOP('',(#190));
#151=EDGE_LOOP('',(#191));
#152=EDGE_LOOP('',(#192));
#153=EDGE_LOOP('',(#193));
#154=EDGE_LOOP('',(#194));
#155=EDGE_LOOP('',(#195));
#156=EDGE_LOOP('',(#196));
#157=EDGE_LOOP('',(#197));
#158=EDGE_LOOP('',(#198));
#159=EDGE_LOOP('',(#199));
#160=EDGE_LOOP('',(#200));
#161=EDGE_LOOP('',(#201));
#162=EDGE_LOOP('',(#202));
#163=EDGE_LOOP('',(#203));
#164=EDGE_LOOP('',(#204));
#165=EDGE_LOOP('',(#205));
#166=EDGE_LOOP('',(#206));
#167=EDGE_LOOP('',(#207));
#168=EDGE_LOOP('',(#208));
#169=EDGE_LOOP('',(#209));
#170=EDGE_LOOP('',(#210));
#171=EDGE_LOOP('',(#211));
#172=EDGE_LOOP('',(#212));
#173=EDGE_LOOP('',(#213));
#174=EDGE_LOOP('',(#214));
#175=EDGE_LOOP('',(#215));
#176=EDGE_LOOP('',(#216));
#177=EDGE_LOOP('',(#217));
#178=EDGE_LOOP('',(#218));
#179=ORIENTED_EDGE('',*,*,#239,.F.);
#180=ORIENTED_EDGE('',*,*,#240,.T.);
#181=ORIENTED_EDGE('',*,*,#241,.F.);
#182=ORIENTED_EDGE('',*,*,#239,.T.);
#183=ORIENTED_EDGE('',*,*,#242,.F.);
#184=ORIENTED_EDGE('',*,*,#241,.T.);
#185=ORIENTED_EDGE('',*,*,#243,.F.);
#186=ORIENTED_EDGE('',*,*,#242,.T.);
#187=ORIENTED_EDGE('',*,*,#244,.F.);
#188=ORIENTED_EDGE('',*,*,#243,.T.);
#189=ORIENTED_EDGE('',*,*,#245,.F.);
#190=ORIENTED_EDGE('',*,*,#244,.T.);
#191=ORIENTED_EDGE('',*,*,#246,.F.);
#192=ORIENTED_EDGE('',*,*,#245,.T.);
#193=ORIENTED_EDGE('',*,*,#247,.F.);
#194=ORIENTED_EDGE('',*,*,#246,.T.);
#195=ORIENTED_EDGE('',*,*,#247,.T.);
#196=ORIENTED_EDGE('',*,*,#240,.F.);
#197=ORIENTED_EDGE('',*,*,#248,.T.);
#198=ORIENTED_EDGE('',*,*,#249,.F.);
#199=ORIENTED_EDGE('',*,*,#250,.T.);
#200=ORIENTED_EDGE('',*,*,#248,.F.);
#201=ORIENTED_EDGE('',*,*,#251,.T.);
#202=ORIENTED_EDGE('',*,*,#250,.F.);
#203=ORIENTED_EDGE('',*,*,#249,.T.);
#204=ORIENTED_EDGE('',*,*,#251,.F.);
#205=ORIENTED_EDGE('',*,*,#252,.T.);
#206=ORIENTED_EDGE('',*,*,#253,.F.);
#207=ORIENTED_EDGE('',*,*,#254,.F.);
#208=ORIENTED_EDGE('',*,*,#253,.T.);
#209=ORIENTED_EDGE('',*,*,#255,.F.);
#210=ORIENTED_EDGE('',*,*,#254,.T.);
#211=ORIENTED_EDGE('',*,*,#256,.F.);
#212=ORIENTED_EDGE('',*,*,#255,.T.);
#213=ORIENTED_EDGE('',*,*,#257,.F.);
#214=ORIENTED_EDGE('',*,*,#256,.T.);
#215=ORIENTED_EDGE('',*,*,#258,.F.);
#216=ORIENTED_EDGE('',*,*,#257,.T.);
#217=ORIENTED_EDGE('',*,*,#252,.F.);
#218=ORIENTED_EDGE('',*,*,#258,.T.);
#219=VERTEX_POINT('',#410);
#220=VERTEX_POINT('',#412);
#221=VERTEX_POINT('',#415);
#222=VERTEX_POINT('',#418);
#223=VERTEX_POINT('',#421);
#224=VERTEX_POINT('',#424);
#225=VERTEX_POINT('',#427);
#226=VERTEX_POINT('',#430);
#227=VERTEX_POINT('',#433);
#228=VERTEX_POINT('',#438);
#229=VERTEX_POINT('',#440);
#230=VERTEX_POINT('',#443);
#231=VERTEX_POINT('',#446);
#232=VERTEX_POINT('',#450);
#233=VERTEX_POINT('',#453);
#234=VERTEX_POINT('',#456);
#235=VERTEX_POINT('',#459);
#236=VERTEX_POINT('',#462);
#237=VERTEX_POINT('',#465);
#238=VERTEX_POINT('',#468);
#239=EDGE_CURVE('',#219,#219,#259,.T.);
#240=EDGE_CURVE('',#220,#220,#260,.T.);
#241=EDGE_CURVE('',#221,#221,#261,.T.);
#242=EDGE_CURVE('',#222,#222,#262,.T.);
#243=EDGE_CURVE('',#223,#223,#263,.T.);
#244=EDGE_CURVE('',#224,#224,#264,.T.);
#245=EDGE_CURVE('',#225,#225,#265,.T.);
#246=EDGE_CURVE('',#226,#226,#266,.T.);
#247=EDGE_CURVE('',#227,#227,#267,.T.);
#248=EDGE_CURVE('',#228,#228,#268,.T.);
#249=EDGE_CURVE('',#229,#229,#269,.T.);
#250=EDGE_CURVE('',#230,#230,#270,.T.);
#251=EDGE_CURVE('',#231,#231,#271,.T.);
#252=EDGE_CURVE('',#232,#232,#272,.T.);
#253=EDGE_CURVE('',#233,#233,#273,.T.);
#254=EDGE_CURVE('',#234,#234,#274,.T.);
#255=EDGE_CURVE('',#235,#235,#275,.T.);
#256=EDGE_CURVE('',#236,#236,#276,.T.);
#257=EDGE_CURVE('',#237,#237,#277,.T.);
#258=EDGE_CURVE('',#238,#238,#278,.T.);
#259=CIRCLE('',#280,3.80320833333326);
#260=CIRCLE('',#281,3.80320833333326);
#261=CIRCLE('',#283,3.7639999999999);
#262=CIRCLE('',#285,3.7639999999999);
#263=CIRCLE('',#287,3.80320833333326);
#264=CIRCLE('',#289,3.80320833333326);
#265=CIRCLE('',#291,3.99924999999996);
#266=CIRCLE('',#293,3.99924999999996);
#267=CIRCLE('',#295,3.72479166666642);
#268=CIRCLE('',#299,9.5);
#269=CIRCLE('',#300,9.5);
#270=CIRCLE('',#302,6.);
#271=CIRCLE('',#304,6.);
#272=CIRCLE('',#307,6.86145833333319);
#273=CIRCLE('',#309,8.26791666666645);
#274=CIRCLE('',#311,9.01791666666645);
#275=CIRCLE('',#313,9.01791666666645);
#276=CIRCLE('',#315,7.68483333333302);
#277=CIRCLE('',#317,7.214333333333);
#278=CIRCLE('',#319,7.214333333333);
#279=AXIS2_PLACEMENT_3D('',#408,#322,#323);
#280=AXIS2_PLACEMENT_3D('',#409,#324,#325);
#281=AXIS2_PLACEMENT_3D('',#411,#326,#327);
#282=AXIS2_PLACEMENT_3D('',#413,#328,#329);
#283=AXIS2_PLACEMENT_3D('',#414,#330,#331);
#284=AXIS2_PLACEMENT_3D('',#416,#332,#333);
#285=AXIS2_PLACEMENT_3D('',#417,#334,#335);
#286=AXIS2_PLACEMENT_3D('',#419,#336,#337);
#287=AXIS2_PLACEMENT_3D('',#420,#338,#339);
#288=AXIS2_PLACEMENT_3D('',#422,#340,#341);
#289=AXIS2_PLACEMENT_3D('',#423,#342,#343);
#290=AXIS2_PLACEMENT_3D('',#425,#344,#345);
#291=AXIS2_PLACEMENT_3D('',#426,#346,#347);
#292=AXIS2_PLACEMENT_3D('',#428,#348,#349);
#293=AXIS2_PLACEMENT_3D('',#429,#350,#351);
#294=AXIS2_PLACEMENT_3D('',#431,#352,#353);
#295=AXIS2_PLACEMENT_3D('',#432,#354,#355);
#296=AXIS2_PLACEMENT_3D('',#434,#356,#357);
#297=AXIS2_PLACEMENT_3D('',#435,#358,#359);
#298=AXIS2_PLACEMENT_3D('',#436,#360,#361);
#299=AXIS2_PLACEMENT_3D('',#437,#362,#363);
#300=AXIS2_PLACEMENT_3D('',#439,#364,#365);
#301=AXIS2_PLACEMENT_3D('',#441,#366,#367);
#302=AXIS2_PLACEMENT_3D('',#442,#368,#369);
#303=AXIS2_PLACEMENT_3D('',#444,#370,#371);
#304=AXIS2_PLACEMENT_3D('',#445,#372,#373);
#305=AXIS2_PLACEMENT_3D('',#447,#374,#375);
#306=AXIS2_PLACEMENT_3D('',#448,#376,#377);
#307=AXIS2_PLACEMENT_3D('',#449,#378,#379);
#308=AXIS2_PLACEMENT_3D('',#451,#380,#381);
#309=AXIS2_PLACEMENT_3D('',#452,#382,#383);
#310=AXIS2_PLACEMENT_3D('',#454,#384,#385);
#311=AXIS2_PLACEMENT_3D('',#455,#386,#387);
#312=AXIS2_PLACEMENT_3D('',#457,#388,#389);
#313=AXIS2_PLACEMENT_3D('',#458,#390,#391);
#314=AXIS2_PLACEMENT_3D('',#460,#392,#393);
#315=AXIS2_PLACEMENT_3D('',#461,#394,#395);
#316=AXIS2_PLACEMENT_3D('',#463,#396,#397);
#317=AXIS2_PLACEMENT_3D('',#464,#398,#399);
#318=AXIS2_PLACEMENT_3D('',#466,#400,#401);
#319=AXIS2_PLACEMENT_3D('',#467,#402,#403);
#320=AXIS2_PLACEMENT_3D('',#469,#404,#405);
#321=AXIS2_PLACEMENT_3D('',#470,#406,#407);
#322=DIRECTION('',(0.,0.,1.));
#323=DIRECTION('',(1.,0.,0.));
#324=DIRECTION('',(0.,0.,1.));
#325=DIRECTION('',(1.,0.,0.));
#326=DIRECTION('',(0.,0.,1.));
#327=DIRECTION('',(1.,0.,0.));
#328=DIRECTION('',(0.,0.,1.));
#329=DIRECTION('',(1.,0.,0.));
#330=DIRECTION('',(0.,0.,1.));
#331=DIRECTION('',(1.,0.,0.));
#332=DIRECTION('',(0.,0.,-1.));
#333=DIRECTION('',(-1.,0.,2.75460488902493E-017));
#334=DIRECTION('',(0.,0.,1.));
#335=DIRECTION('',(1.,0.,0.));
#336=DIRECTION('',(0.,0.,1.));
#337=DIRECTION('',(1.,0.,0.));
#338=DIRECTION('',(0.,0.,1.));
#339=DIRECTION('',(1.,0.,0.));
#340=DIRECTION('',(0.,0.,1.));
#341=DIRECTION('',(1.,0.,-6.22158646207326E-017));
#342=DIRECTION('',(0.,0.,1.));
#343=DIRECTION('',(1.,0.,0.));
#344=DIRECTION('',(0.,0.,1.));
#345=DIRECTION('',(1.,0.,0.));
#346=DIRECTION('',(0.,0.,1.));
#347=DIRECTION('',(1.,0.,0.));
#348=DIRECTION('',(0.,0.,1.));
#349=DIRECTION('',(1.,0.,-6.88651222255442E-017));
#350=DIRECTION('',(0.,0.,1.));
#351=DIRECTION('',(1.,0.,0.));
#352=DIRECTION('',(0.,0.,1.));
#353=DIRECTION('',(1.,0.,0.));
#354=DIRECTION('',(0.,0.,1.));
#355=DIRECTION('',(1.,0.,0.));
#356=DIRECTION('',(0.,0.,-1.));
#357=DIRECTION('',(-1.,0.,-7.08854992977714E-017));
#358=DIRECTION('',(0.,0.,-1.));
#359=DIRECTION('',(-1.,0.,0.));
#360=DIRECTION('',(0.,0.,1.));
#361=DIRECTION('',(1.,0.,0.));
#362=DIRECTION('',(0.,0.,1.));
#363=DIRECTION('',(1.,0.,0.));
#364=DIRECTION('',(0.,0.,1.));
#365=DIRECTION('',(1.,0.,0.));
#366=DIRECTION('',(0.,0.,1.));
#367=DIRECTION('',(1.,0.,0.));
#368=DIRECTION('',(0.,0.,1.));
#369=DIRECTION('',(1.,0.,0.));
#370=DIRECTION('',(0.,0.,-1.));
#371=DIRECTION('',(-1.,0.,0.));
#372=DIRECTION('',(0.,0.,1.));
#373=DIRECTION('',(1.,0.,0.));
#374=DIRECTION('',(0.,0.,1.));
#375=DIRECTION('',(1.,0.,0.));
#376=DIRECTION('',(0.,0.,1.));
#377=DIRECTION('',(1.,0.,0.));
#378=DIRECTION('',(0.,0.,1.));
#379=DIRECTION('',(1.,0.,0.));
#380=DIRECTION('',(0.,0.,1.));
#381=DIRECTION('',(1.,0.,0.));
#382=DIRECTION('',(0.,0.,1.));
#383=DIRECTION('',(1.,0.,0.));
#384=DIRECTION('',(0.,0.,1.));
#385=DIRECTION('',(1.,0.,0.));
#386=DIRECTION('',(0.,0.,1.));
#387=DIRECTION('',(1.,0.,0.));
#388=DIRECTION('',(0.,0.,1.));
#389=DIRECTION('',(1.,0.,2.06459824493292E-017));
#390=DIRECTION('',(0.,0.,1.));
#391=DIRECTION('',(1.,0.,0.));
#392=DIRECTION('',(0.,0.,1.));
#393=DIRECTION('',(1.,0.,0.));
#394=DIRECTION('',(0.,0.,1.));
#395=DIRECTION('',(1.,0.,0.));
#396=DIRECTION('',(0.,0.,-1.));
#397=DIRECTION('',(-1.,0.,2.89363065437485E-017));
#398=DIRECTION('',(0.,0.,1.));
#399=DIRECTION('',(1.,0.,0.));
#400=DIRECTION('',(0.,0.,-1.));
#401=DIRECTION('',(-1.,0.,0.));
#402=DIRECTION('',(0.,0.,1.));
#403=DIRECTION('',(1.,0.,0.));
#404=DIRECTION('',(0.,0.,1.));
#405=DIRECTION('',(1.,0.,0.));
#406=DIRECTION('',(0.,0.,-1.));
#407=DIRECTION('',(-1.,0.,-9.98932980567716E-017));
#408=CARTESIAN_POINT('',(0.,0.,0.));
#409=CARTESIAN_POINT('',(0.,0.,0.0392083333332488));
#410=CARTESIAN_POINT('',(3.80320833333326,0.,0.0392083333332488));
#411=CARTESIAN_POINT('',(0.,0.,0.));
#412=CARTESIAN_POINT('',(3.80320833333326,0.,0.));
#413=CARTESIAN_POINT('',(0.,0.,-19.8786250000002));
#414=CARTESIAN_POINT('',(0.,0.,0.117624999999975));
#415=CARTESIAN_POINT('',(3.7639999999999,0.,0.117624999999975));
#416=CARTESIAN_POINT('',(0.,0.,0.0392083333332488));
#417=CARTESIAN_POINT('',(0.,0.,0.548916666666628));
#418=CARTESIAN_POINT('',(3.7639999999999,0.,0.548916666666628));
#419=CARTESIAN_POINT('',(0.,0.,-19.8786250000002));
#420=CARTESIAN_POINT('',(0.,0.,0.588124999999991));
#421=CARTESIAN_POINT('',(3.80320833333326,0.,0.588124999999991));
#422=CARTESIAN_POINT('',(0.,0.,0.548916666666628));
#423=CARTESIAN_POINT('',(0.,0.,0.666541666666943));
#424=CARTESIAN_POINT('',(3.80320833333326,0.,0.666541666666943));
#425=CARTESIAN_POINT('',(0.,0.,-19.8786250000002));
#426=CARTESIAN_POINT('',(0.,0.,1.05862499999989));
#427=CARTESIAN_POINT('',(3.99924999999996,0.,1.05862499999989));
#428=CARTESIAN_POINT('',(0.,0.,0.666541666666943));
#429=CARTESIAN_POINT('',(0.,0.,12.5074583333333));
#430=CARTESIAN_POINT('',(3.99924999999996,0.,12.5074583333333));
#431=CARTESIAN_POINT('',(0.,0.,-19.8786250000002));
#432=CARTESIAN_POINT('',(0.,0.,12.9779583333335));
#433=CARTESIAN_POINT('',(3.72479166666642,0.,12.9779583333335));
#434=CARTESIAN_POINT('',(0.,0.,12.5074583333333));
#435=CARTESIAN_POINT('',(0.,-3.72479166666642,12.9779583333335));
#436=CARTESIAN_POINT('',(0.,0.,0.));
#437=CARTESIAN_POINT('',(0.,0.,-20.0354583333332));
#438=CARTESIAN_POINT('',(9.5,0.,-20.0354583333332));
#439=CARTESIAN_POINT('',(0.,0.,-5.03545833333317));
#440=CARTESIAN_POINT('',(9.5,0.,-5.03545833333317));
#441=CARTESIAN_POINT('',(0.,0.,-19.8786250000002));
#442=CARTESIAN_POINT('',(0.,0.,-20.0354583333332));
#443=CARTESIAN_POINT('',(6.,0.,-20.0354583333332));
#444=CARTESIAN_POINT('',(0.,-9.5,-20.0354583333332));
#445=CARTESIAN_POINT('',(0.,0.,-5.03545833333317));
#446=CARTESIAN_POINT('',(6.,0.,-5.03545833333317));
#447=CARTESIAN_POINT('',(0.,0.,-19.8786250000002));
#448=CARTESIAN_POINT('',(0.,-6.,-5.03545833333317));
#449=CARTESIAN_POINT('',(0.,0.,0.));
#450=CARTESIAN_POINT('',(6.86145833333319,0.,0.));
#451=CARTESIAN_POINT('',(0.,0.,0.));
#452=CARTESIAN_POINT('',(0.,0.,-19.8786250000002));
#453=CARTESIAN_POINT('',(8.26791666666645,0.,-19.8786250000002));
#454=CARTESIAN_POINT('',(0.,0.,-19.8786250000002));
#455=CARTESIAN_POINT('',(0.,0.,-19.1286250000002));
#456=CARTESIAN_POINT('',(9.01791666666645,0.,-19.1286250000002));
#457=CARTESIAN_POINT('',(0.,0.,-19.8786250000002));
#458=CARTESIAN_POINT('',(0.,0.,-2.11725000000001));
#459=CARTESIAN_POINT('',(9.01791666666645,0.,-2.11725000000001));
#460=CARTESIAN_POINT('',(0.,0.,-19.8786250000002));
#461=CARTESIAN_POINT('',(0.,0.,-1.37229166666612));
#462=CARTESIAN_POINT('',(7.68483333333302,0.,-1.37229166666612));
#463=CARTESIAN_POINT('',(0.,0.,-2.11725000000001));
#464=CARTESIAN_POINT('',(0.,0.,-1.37229166666612));
#465=CARTESIAN_POINT('',(7.214333333333,0.,-1.37229166666612));
#466=CARTESIAN_POINT('',(0.,-7.68483333333302,-1.37229166666611));
#467=CARTESIAN_POINT('',(0.,0.,-0.352875000000041));
#468=CARTESIAN_POINT('',(7.214333333333,0.,-0.352875000000041));
#469=CARTESIAN_POINT('',(0.,0.,-19.8786250000002));
#470=CARTESIAN_POINT('',(0.,0.,-0.352875000000041));
#471=MECHANICAL_DESIGN_GEOMETRIC_PRESENTATION_REPRESENTATION('',(#26,#27,
#28),#472);
#472=(
GEOMETRIC_REPRESENTATION_CONTEXT(3)
GLOBAL_UNCERTAINTY_ASSIGNED_CONTEXT((#473))
GLOBAL_UNIT_ASSIGNED_CONTEXT((#479,#475,#474))
REPRESENTATION_CONTEXT('02602336','TOP_LEVEL_ASSEMBLY_PART')
);
#473=UNCERTAINTY_MEASURE_WITH_UNIT(LENGTH_MEASURE(2.E-005),#479,
'DISTANCE_ACCURACY_VALUE','Maximum Tolerance applied to model');
#474=(
NAMED_UNIT(*)
SI_UNIT($,.STERADIAN.)
SOLID_ANGLE_UNIT()
);
#475=(
CONVERSION_BASED_UNIT('DEGREE',#477)
NAMED_UNIT(#476)
PLANE_ANGLE_UNIT()
);
#476=DIMENSIONAL_EXPONENTS(0.,0.,0.,0.,0.,0.,0.);
#477=PLANE_ANGLE_MEASURE_WITH_UNIT(PLANE_ANGLE_MEASURE(0.0174532925),#478);
#478=(
NAMED_UNIT(*)
PLANE_ANGLE_UNIT()
SI_UNIT($,.RADIAN.)
);
#479=(
LENGTH_UNIT()
NAMED_UNIT(*)
SI_UNIT(.MILLI.,.METRE.)
);
ENDSEC;
END-ISO-10303-21;
