ISO-10303-21;
HEADER;
/* Generated by software containing ST-Developer
 * from STEP Tools, Inc. (www.steptools.com) 
 */
/* OPTION: using custom schema-name function */

FILE_DESCRIPTION(
/* description */ (''),
/* implementation_level */ '2;1');

FILE_NAME(
/* name */ '02602334.stp',
/* time_stamp */ '2012-03-29T16:33:37+05:00',
/* author */ (''),
/* organization */ (''),
/* preprocessor_version */ 'ST-DEVELOPER v11',
/* originating_system */ 'SIEMENS PLM Software NX 7.5',
/* authorisation */ '');

FILE_SCHEMA (('AUTOMOTIVE_DESIGN { 1 0 10303 214 1 1 1 1 }'));
ENDSEC;

DATA;
#10=SHAPE_REPRESENTATION_RELATIONSHIP('None',
'relationship between inpuC3D1mmwu-None and inpuC3D1mmwu-None',#22,#11);
#11=ADVANCED_BREP_SHAPE_REPRESENTATION('inpuC3D1mmwu-None',(#49,#50,#51),
#472);
#12=SHAPE_DEFINITION_REPRESENTATION(#13,#22);
#13=PRODUCT_DEFINITION_SHAPE('','',#14);
#14=PRODUCT_DEFINITION(' ','',#16,#15);
#15=PRODUCT_DEFINITION_CONTEXT('part definition',#21,'design');
#16=PRODUCT_DEFINITION_FORMATION_WITH_SPECIFIED_SOURCE(' ',' ',#18,.NOT_KNOWN.);
#17=PRODUCT_RELATED_PRODUCT_CATEGORY('part','',(#18));
#18=PRODUCT('inpuC3D1mmwu','inpuC3D1mmwu',' ',(#19));
#19=PRODUCT_CONTEXT(' ',#21,'mechanical');
#20=APPLICATION_PROTOCOL_DEFINITION('international standard',
'automotive_design',2001,#21);
#21=APPLICATION_CONTEXT(
'core data for automotive mechanical design processes');
#22=SHAPE_REPRESENTATION('inpuC3D1mmwu-None',(#279),#472);
#23=PRESENTATION_LAYER_ASSIGNMENT('1','Layer 1',(#49));
#24=PRESENTATION_LAYER_ASSIGNMENT('3','Layer 3',(#50));
#25=PRESENTATION_LAYER_ASSIGNMENT('2','Layer 2',(#51));
#26=STYLED_ITEM('',(#29),#49);
#27=STYLED_ITEM('',(#30),#50);
#28=STYLED_ITEM('',(#31),#51);
#29=PRESENTATION_STYLE_ASSIGNMENT((#32));
#30=PRESENTATION_STYLE_ASSIGNMENT((#33));
#31=PRESENTATION_STYLE_ASSIGNMENT((#34));
#32=SURFACE_STYLE_USAGE(.BOTH.,#35);
#33=SURFACE_STYLE_USAGE(.BOTH.,#36);
#34=SURFACE_STYLE_USAGE(.BOTH.,#37);
#35=SURFACE_SIDE_STYLE('',(#38));
#36=SURFACE_SIDE_STYLE('',(#39));
#37=SURFACE_SIDE_STYLE('',(#40));
#38=SURFACE_STYLE_FILL_AREA(#41);
#39=SURFACE_STYLE_FILL_AREA(#42);
#40=SURFACE_STYLE_FILL_AREA(#43);
#41=FILL_AREA_STYLE('',(#44));
#42=FILL_AREA_STYLE('',(#45));
#43=FILL_AREA_STYLE('',(#46));
#44=FILL_AREA_STYLE_COLOUR('',#47);
#45=FILL_AREA_STYLE_COLOUR('',#48);
#46=FILL_AREA_STYLE_COLOUR('',#47);
#47=COLOUR_RGB('Medium Gray',0.490196078431373,0.490196078431373,0.490196078431373);
#48=COLOUR_RGB('Light Gray',0.8,0.8,0.8);
#49=MANIFOLD_SOLID_BREP('',#52);
#50=MANIFOLD_SOLID_BREP('',#53);
#51=MANIFOLD_SOLID_BREP('',#54);
#52=CLOSED_SHELL('',(#106,#107,#108,#109,#110,#111,#112,#113,#114,#115));
#53=CLOSED_SHELL('',(#116,#117,#118,#119));
#54=CLOSED_SHELL('',(#120,#121,#122,#123,#124,#125,#126,#127));
#55=CYLINDRICAL_SURFACE('',#285,3.49959166666667);
#56=CYLINDRICAL_SURFACE('',#289,3.3231416666664);
#57=CYLINDRICAL_SURFACE('',#293,3.29373333333319);
#58=CYLINDRICAL_SURFACE('',#303,6.25);
#59=CYLINDRICAL_SURFACE('',#306,8.5);
#60=CYLINDRICAL_SURFACE('',#314,8.08729166666672);
#61=CYLINDRICAL_SURFACE('',#320,5.4993583333333);
#62=CONICAL_SURFACE('',#283,3.20550833333328,30.4655449194859);
#63=CONICAL_SURFACE('',#287,3.49959166666667,26.5650511771149);
#64=CONICAL_SURFACE('',#291,3.3231416666664,44.9999999996671);
#65=CONICAL_SURFACE('',#295,3.29373333333319,26.5650511771003);
#66=CONICAL_SURFACE('',#297,3.35254999999989,44.9999999995564);
#67=CONICAL_SURFACE('',#312,8.08729166666672,45.0000000000087);
#68=CONICAL_SURFACE('',#316,6.38160833333319,59.6208739886242);
#69=CONICAL_SURFACE('',#321,5.14645833333299,45.0000000000185);
#70=FACE_BOUND('',#140,.T.);
#71=FACE_BOUND('',#141,.T.);
#72=FACE_BOUND('',#142,.T.);
#73=FACE_BOUND('',#143,.T.);
#74=FACE_BOUND('',#144,.T.);
#75=FACE_BOUND('',#145,.T.);
#76=FACE_BOUND('',#146,.T.);
#77=FACE_BOUND('',#147,.T.);
#78=FACE_BOUND('',#148,.T.);
#79=FACE_BOUND('',#149,.T.);
#80=FACE_BOUND('',#150,.T.);
#81=FACE_BOUND('',#151,.T.);
#82=FACE_BOUND('',#152,.T.);
#83=FACE_BOUND('',#153,.T.);
#84=FACE_BOUND('',#154,.T.);
#85=FACE_BOUND('',#155,.T.);
#86=FACE_BOUND('',#157,.T.);
#87=FACE_BOUND('',#158,.T.);
#88=FACE_BOUND('',#159,.T.);
#89=FACE_BOUND('',#160,.T.);
#90=FACE_BOUND('',#161,.T.);
#91=FACE_BOUND('',#162,.T.);
#92=FACE_BOUND('',#163,.T.);
#93=FACE_BOUND('',#164,.T.);
#94=FACE_BOUND('',#167,.T.);
#95=FACE_BOUND('',#168,.T.);
#96=FACE_BOUND('',#169,.T.);
#97=FACE_BOUND('',#170,.T.);
#98=FACE_BOUND('',#171,.T.);
#99=FACE_BOUND('',#172,.T.);
#100=FACE_BOUND('',#173,.T.);
#101=FACE_BOUND('',#174,.T.);
#102=FACE_BOUND('',#175,.T.);
#103=FACE_BOUND('',#176,.T.);
#104=FACE_BOUND('',#177,.T.);
#105=FACE_BOUND('',#178,.T.);
#106=ADVANCED_FACE('',(#135),#128,.T.);
#107=ADVANCED_FACE('',(#70,#71),#62,.T.);
#108=ADVANCED_FACE('',(#72,#73),#55,.T.);
#109=ADVANCED_FACE('',(#74,#75),#63,.T.);
#110=ADVANCED_FACE('',(#76,#77),#56,.T.);
#111=ADVANCED_FACE('',(#78,#79),#64,.T.);
#112=ADVANCED_FACE('',(#80,#81),#57,.T.);
#113=ADVANCED_FACE('',(#82,#83),#65,.T.);
#114=ADVANCED_FACE('',(#84,#85),#66,.T.);
#115=ADVANCED_FACE('',(#136),#129,.F.);
#116=ADVANCED_FACE('',(#86,#87),#130,.F.);
#117=ADVANCED_FACE('',(#88,#89),#58,.F.);
#118=ADVANCED_FACE('',(#90,#91),#131,.F.);
#119=ADVANCED_FACE('',(#92,#93),#59,.T.);
#120=ADVANCED_FACE('',(#137),#132,.T.);
#121=ADVANCED_FACE('',(#138),#133,.T.);
#122=ADVANCED_FACE('',(#94,#95),#67,.T.);
#123=ADVANCED_FACE('',(#96,#97),#60,.T.);
#124=ADVANCED_FACE('',(#98,#99),#68,.T.);
#125=ADVANCED_FACE('',(#100,#101),#134,.T.);
#126=ADVANCED_FACE('',(#102,#103),#61,.T.);
#127=ADVANCED_FACE('',(#104,#105),#69,.T.);
#128=PLANE('',#281);
#129=PLANE('',#298);
#130=PLANE('',#301);
#131=PLANE('',#305);
#132=PLANE('',#308);
#133=PLANE('',#310);
#134=PLANE('',#318);
#135=FACE_OUTER_BOUND('',#139,.T.);
#136=FACE_OUTER_BOUND('',#156,.T.);
#137=FACE_OUTER_BOUND('',#165,.T.);
#138=FACE_OUTER_BOUND('',#166,.T.);
#139=EDGE_LOOP('',(#179));
#140=EDGE_LOOP('',(#180));
#141=EDGE_LOOP('',(#181));
#142=EDGE_LOOP('',(#182));
#143=EDGE_LOOP('',(#183));
#144=EDGE_LOOP('',(#184));
#145=EDGE_LOOP('',(#185));
#146=EDGE_LOOP('',(#186));
#147=EDGE_LOOP('',(#187));
#148=EDGE_LOOP('',(#188));
#149=EDGE_LOOP('',(#189));
#150=EDGE_LOOP('',(#190));
#151=EDGE_LOOP('',(#191));
#152=EDGE_LOOP('',(#192));
#153=EDGE_LOOP('',(#193));
#154=EDGE_LOOP('',(#194));
#155=EDGE_LOOP('',(#195));
#156=EDGE_LOOP('',(#196));
#157=EDGE_LOOP('',(#197));
#158=EDGE_LOOP('',(#198));
#159=EDGE_LOOP('',(#199));
#160=EDGE_LOOP('',(#200));
#161=EDGE_LOOP('',(#201));
#162=EDGE_LOOP('',(#202));
#163=EDGE_LOOP('',(#203));
#164=EDGE_LOOP('',(#204));
#165=EDGE_LOOP('',(#205));
#166=EDGE_LOOP('',(#206));
#167=EDGE_LOOP('',(#207));
#168=EDGE_LOOP('',(#208));
#169=EDGE_LOOP('',(#209));
#170=EDGE_LOOP('',(#210));
#171=EDGE_LOOP('',(#211));
#172=EDGE_LOOP('',(#212));
#173=EDGE_LOOP('',(#213));
#174=EDGE_LOOP('',(#214));
#175=EDGE_LOOP('',(#215));
#176=EDGE_LOOP('',(#216));
#177=EDGE_LOOP('',(#217));
#178=EDGE_LOOP('',(#218));
#179=ORIENTED_EDGE('',*,*,#239,.T.);
#180=ORIENTED_EDGE('',*,*,#240,.T.);
#181=ORIENTED_EDGE('',*,*,#239,.F.);
#182=ORIENTED_EDGE('',*,*,#241,.T.);
#183=ORIENTED_EDGE('',*,*,#240,.F.);
#184=ORIENTED_EDGE('',*,*,#242,.T.);
#185=ORIENTED_EDGE('',*,*,#241,.F.);
#186=ORIENTED_EDGE('',*,*,#243,.T.);
#187=ORIENTED_EDGE('',*,*,#242,.F.);
#188=ORIENTED_EDGE('',*,*,#244,.T.);
#189=ORIENTED_EDGE('',*,*,#243,.F.);
#190=ORIENTED_EDGE('',*,*,#245,.T.);
#191=ORIENTED_EDGE('',*,*,#244,.F.);
#192=ORIENTED_EDGE('',*,*,#246,.T.);
#193=ORIENTED_EDGE('',*,*,#245,.F.);
#194=ORIENTED_EDGE('',*,*,#247,.T.);
#195=ORIENTED_EDGE('',*,*,#246,.F.);
#196=ORIENTED_EDGE('',*,*,#247,.F.);
#197=ORIENTED_EDGE('',*,*,#248,.F.);
#198=ORIENTED_EDGE('',*,*,#249,.T.);
#199=ORIENTED_EDGE('',*,*,#250,.F.);
#200=ORIENTED_EDGE('',*,*,#248,.T.);
#201=ORIENTED_EDGE('',*,*,#251,.F.);
#202=ORIENTED_EDGE('',*,*,#250,.T.);
#203=ORIENTED_EDGE('',*,*,#249,.F.);
#204=ORIENTED_EDGE('',*,*,#251,.T.);
#205=ORIENTED_EDGE('',*,*,#252,.T.);
#206=ORIENTED_EDGE('',*,*,#253,.F.);
#207=ORIENTED_EDGE('',*,*,#253,.T.);
#208=ORIENTED_EDGE('',*,*,#254,.F.);
#209=ORIENTED_EDGE('',*,*,#254,.T.);
#210=ORIENTED_EDGE('',*,*,#255,.F.);
#211=ORIENTED_EDGE('',*,*,#255,.T.);
#212=ORIENTED_EDGE('',*,*,#256,.F.);
#213=ORIENTED_EDGE('',*,*,#256,.T.);
#214=ORIENTED_EDGE('',*,*,#257,.F.);
#215=ORIENTED_EDGE('',*,*,#257,.T.);
#216=ORIENTED_EDGE('',*,*,#258,.F.);
#217=ORIENTED_EDGE('',*,*,#258,.T.);
#218=ORIENTED_EDGE('',*,*,#252,.F.);
#219=VERTEX_POINT('',#410);
#220=VERTEX_POINT('',#413);
#221=VERTEX_POINT('',#416);
#222=VERTEX_POINT('',#419);
#223=VERTEX_POINT('',#422);
#224=VERTEX_POINT('',#425);
#225=VERTEX_POINT('',#428);
#226=VERTEX_POINT('',#431);
#227=VERTEX_POINT('',#434);
#228=VERTEX_POINT('',#438);
#229=VERTEX_POINT('',#440);
#230=VERTEX_POINT('',#443);
#231=VERTEX_POINT('',#446);
#232=VERTEX_POINT('',#450);
#233=VERTEX_POINT('',#453);
#234=VERTEX_POINT('',#456);
#235=VERTEX_POINT('',#459);
#236=VERTEX_POINT('',#462);
#237=VERTEX_POINT('',#465);
#238=VERTEX_POINT('',#468);
#239=EDGE_CURVE('',#219,#219,#259,.T.);
#240=EDGE_CURVE('',#220,#220,#260,.T.);
#241=EDGE_CURVE('',#221,#221,#261,.T.);
#242=EDGE_CURVE('',#222,#222,#262,.T.);
#243=EDGE_CURVE('',#223,#223,#263,.T.);
#244=EDGE_CURVE('',#224,#224,#264,.T.);
#245=EDGE_CURVE('',#225,#225,#265,.T.);
#246=EDGE_CURVE('',#226,#226,#266,.T.);
#247=EDGE_CURVE('',#227,#227,#267,.T.);
#248=EDGE_CURVE('',#228,#228,#268,.T.);
#249=EDGE_CURVE('',#229,#229,#269,.T.);
#250=EDGE_CURVE('',#230,#230,#270,.T.);
#251=EDGE_CURVE('',#231,#231,#271,.T.);
#252=EDGE_CURVE('',#232,#232,#272,.T.);
#253=EDGE_CURVE('',#233,#233,#273,.T.);
#254=EDGE_CURVE('',#234,#234,#274,.T.);
#255=EDGE_CURVE('',#235,#235,#275,.T.);
#256=EDGE_CURVE('',#236,#236,#276,.T.);
#257=EDGE_CURVE('',#237,#237,#277,.T.);
#258=EDGE_CURVE('',#238,#238,#278,.T.);
#259=CIRCLE('',#280,3.20550833333328);
#260=CIRCLE('',#282,3.49959166666667);
#261=CIRCLE('',#284,3.49959166666667);
#262=CIRCLE('',#286,3.3231416666664);
#263=CIRCLE('',#288,3.3231416666664);
#264=CIRCLE('',#290,3.29373333333319);
#265=CIRCLE('',#292,3.29373333333319);
#266=CIRCLE('',#294,3.35254999999989);
#267=CIRCLE('',#296,3.38195833333299);
#268=CIRCLE('',#299,6.25);
#269=CIRCLE('',#300,8.5);
#270=CIRCLE('',#302,6.25);
#271=CIRCLE('',#304,8.5);
#272=CIRCLE('',#307,5.14645833333299);
#273=CIRCLE('',#309,7.33729166666649);
#274=CIRCLE('',#311,8.08729166666672);
#275=CIRCLE('',#313,8.08729166666672);
#276=CIRCLE('',#315,6.38160833333319);
#277=CIRCLE('',#317,5.4993583333333);
#278=CIRCLE('',#319,5.4993583333333);
#279=AXIS2_PLACEMENT_3D('',#408,#322,#323);
#280=AXIS2_PLACEMENT_3D('',#409,#324,#325);
#281=AXIS2_PLACEMENT_3D('',#411,#326,#327);
#282=AXIS2_PLACEMENT_3D('',#412,#328,#329);
#283=AXIS2_PLACEMENT_3D('',#414,#330,#331);
#284=AXIS2_PLACEMENT_3D('',#415,#332,#333);
#285=AXIS2_PLACEMENT_3D('',#417,#334,#335);
#286=AXIS2_PLACEMENT_3D('',#418,#336,#337);
#287=AXIS2_PLACEMENT_3D('',#420,#338,#339);
#288=AXIS2_PLACEMENT_3D('',#421,#340,#341);
#289=AXIS2_PLACEMENT_3D('',#423,#342,#343);
#290=AXIS2_PLACEMENT_3D('',#424,#344,#345);
#291=AXIS2_PLACEMENT_3D('',#426,#346,#347);
#292=AXIS2_PLACEMENT_3D('',#427,#348,#349);
#293=AXIS2_PLACEMENT_3D('',#429,#350,#351);
#294=AXIS2_PLACEMENT_3D('',#430,#352,#353);
#295=AXIS2_PLACEMENT_3D('',#432,#354,#355);
#296=AXIS2_PLACEMENT_3D('',#433,#356,#357);
#297=AXIS2_PLACEMENT_3D('',#435,#358,#359);
#298=AXIS2_PLACEMENT_3D('',#436,#360,#361);
#299=AXIS2_PLACEMENT_3D('',#437,#362,#363);
#300=AXIS2_PLACEMENT_3D('',#439,#364,#365);
#301=AXIS2_PLACEMENT_3D('',#441,#366,#367);
#302=AXIS2_PLACEMENT_3D('',#442,#368,#369);
#303=AXIS2_PLACEMENT_3D('',#444,#370,#371);
#304=AXIS2_PLACEMENT_3D('',#445,#372,#373);
#305=AXIS2_PLACEMENT_3D('',#447,#374,#375);
#306=AXIS2_PLACEMENT_3D('',#448,#376,#377);
#307=AXIS2_PLACEMENT_3D('',#449,#378,#379);
#308=AXIS2_PLACEMENT_3D('',#451,#380,#381);
#309=AXIS2_PLACEMENT_3D('',#452,#382,#383);
#310=AXIS2_PLACEMENT_3D('',#454,#384,#385);
#311=AXIS2_PLACEMENT_3D('',#455,#386,#387);
#312=AXIS2_PLACEMENT_3D('',#457,#388,#389);
#313=AXIS2_PLACEMENT_3D('',#458,#390,#391);
#314=AXIS2_PLACEMENT_3D('',#460,#392,#393);
#315=AXIS2_PLACEMENT_3D('',#461,#394,#395);
#316=AXIS2_PLACEMENT_3D('',#463,#396,#397);
#317=AXIS2_PLACEMENT_3D('',#464,#398,#399);
#318=AXIS2_PLACEMENT_3D('',#466,#400,#401);
#319=AXIS2_PLACEMENT_3D('',#467,#402,#403);
#320=AXIS2_PLACEMENT_3D('',#469,#404,#405);
#321=AXIS2_PLACEMENT_3D('',#470,#406,#407);
#322=DIRECTION('',(0.,0.,1.));
#323=DIRECTION('',(1.,0.,0.));
#324=DIRECTION('',(0.,0.,1.));
#325=DIRECTION('',(1.,0.,0.));
#326=DIRECTION('',(0.,0.,1.));
#327=DIRECTION('',(1.,0.,0.));
#328=DIRECTION('',(0.,0.,1.));
#329=DIRECTION('',(1.,0.,0.));
#330=DIRECTION('',(0.,0.,-1.));
#331=DIRECTION('',(-1.,0.,-8.79914000920891E-018));
#332=DIRECTION('',(0.,0.,1.));
#333=DIRECTION('',(1.,0.,0.));
#334=DIRECTION('',(0.,0.,1.));
#335=DIRECTION('',(1.,0.,0.));
#336=DIRECTION('',(0.,0.,1.));
#337=DIRECTION('',(1.,0.,0.));
#338=DIRECTION('',(0.,0.,1.));
#339=DIRECTION('',(1.,0.,-1.51594627296916E-016));
#340=DIRECTION('',(0.,0.,1.));
#341=DIRECTION('',(1.,0.,0.));
#342=DIRECTION('',(0.,0.,1.));
#343=DIRECTION('',(1.,0.,0.));
#344=DIRECTION('',(0.,0.,1.));
#345=DIRECTION('',(1.,0.,0.));
#346=DIRECTION('',(0.,0.,1.));
#347=DIRECTION('',(1.,0.,-8.81778697228878E-017));
#348=DIRECTION('',(0.,0.,1.));
#349=DIRECTION('',(1.,0.,0.));
#350=DIRECTION('',(0.,0.,1.));
#351=DIRECTION('',(1.,0.,0.));
#352=DIRECTION('',(0.,0.,1.));
#353=DIRECTION('',(1.,0.,0.));
#354=DIRECTION('',(0.,0.,-1.));
#355=DIRECTION('',(-1.,0.,-8.96152830607204E-017));
#356=DIRECTION('',(0.,0.,1.));
#357=DIRECTION('',(1.,0.,0.));
#358=DIRECTION('',(0.,0.,-1.));
#359=DIRECTION('',(-1.,0.,-1.38314172899931E-017));
#360=DIRECTION('',(0.,0.,1.));
#361=DIRECTION('',(1.,0.,0.));
#362=DIRECTION('',(0.,0.,1.));
#363=DIRECTION('',(1.,0.,0.));
#364=DIRECTION('',(0.,0.,1.));
#365=DIRECTION('',(1.,0.,0.));
#366=DIRECTION('',(0.,0.,-1.));
#367=DIRECTION('',(-1.,0.,0.));
#368=DIRECTION('',(0.,0.,1.));
#369=DIRECTION('',(1.,0.,0.));
#370=DIRECTION('',(0.,0.,1.));
#371=DIRECTION('',(1.,0.,0.));
#372=DIRECTION('',(0.,0.,1.));
#373=DIRECTION('',(1.,0.,0.));
#374=DIRECTION('',(0.,0.,1.));
#375=DIRECTION('',(1.,0.,0.));
#376=DIRECTION('',(0.,0.,1.));
#377=DIRECTION('',(1.,0.,0.));
#378=DIRECTION('',(0.,0.,1.));
#379=DIRECTION('',(1.,0.,0.));
#380=DIRECTION('',(0.,0.,1.));
#381=DIRECTION('',(1.,0.,0.));
#382=DIRECTION('',(0.,0.,1.));
#383=DIRECTION('',(1.,0.,0.));
#384=DIRECTION('',(0.,0.,-1.));
#385=DIRECTION('',(-1.,0.,0.));
#386=DIRECTION('',(0.,0.,1.));
#387=DIRECTION('',(1.,0.,0.));
#388=DIRECTION('',(0.,0.,1.));
#389=DIRECTION('',(1.,0.,-3.2695329378726E-017));
#390=DIRECTION('',(0.,0.,1.));
#391=DIRECTION('',(1.,0.,0.));
#392=DIRECTION('',(0.,0.,1.));
#393=DIRECTION('',(1.,0.,0.));
#394=DIRECTION('',(0.,0.,1.));
#395=DIRECTION('',(1.,0.,0.));
#396=DIRECTION('',(0.,0.,-1.));
#397=DIRECTION('',(-1.,0.,-4.15377909736124E-017));
#398=DIRECTION('',(0.,0.,1.));
#399=DIRECTION('',(1.,0.,0.));
#400=DIRECTION('',(0.,0.,1.));
#401=DIRECTION('',(1.,0.,0.));
#402=DIRECTION('',(0.,0.,1.));
#403=DIRECTION('',(1.,0.,0.));
#404=DIRECTION('',(0.,0.,1.));
#405=DIRECTION('',(1.,0.,0.));
#406=DIRECTION('',(0.,0.,-1.));
#407=DIRECTION('',(-1.,0.,0.));
#408=CARTESIAN_POINT('',(0.,0.,0.));
#409=CARTESIAN_POINT('',(0.,0.,11.4986583333332));
#410=CARTESIAN_POINT('',(3.20550833333328,0.,11.4986583333332));
#411=CARTESIAN_POINT('',(0.,0.,11.4986583333332));
#412=CARTESIAN_POINT('',(0.,0.,10.998716666667));
#413=CARTESIAN_POINT('',(3.49959166666667,0.,10.998716666667));
#414=CARTESIAN_POINT('',(0.,0.,11.4986583333332));
#415=CARTESIAN_POINT('',(0.,0.,1.05870000000004));
#416=CARTESIAN_POINT('',(3.49959166666667,0.,1.05870000000004));
#417=CARTESIAN_POINT('',(0.,0.,-12.8514416666663));
#418=CARTESIAN_POINT('',(0.,0.,0.705800000000067));
#419=CARTESIAN_POINT('',(3.3231416666664,0.,0.705800000000067));
#420=CARTESIAN_POINT('',(0.,0.,1.05870000000004));
#421=CARTESIAN_POINT('',(0.,0.,0.676391666667086));
#422=CARTESIAN_POINT('',(3.3231416666664,0.,0.676391666667086));
#423=CARTESIAN_POINT('',(0.,0.,-12.8514416666663));
#424=CARTESIAN_POINT('',(0.,0.,0.646983333333536));
#425=CARTESIAN_POINT('',(3.29373333333319,0.,0.646983333333536));
#426=CARTESIAN_POINT('',(0.,0.,0.676391666667086));
#427=CARTESIAN_POINT('',(0.,0.,0.147041666666837));
#428=CARTESIAN_POINT('',(3.29373333333319,0.,0.147041666666837));
#429=CARTESIAN_POINT('',(0.,0.,-12.8514416666663));
#430=CARTESIAN_POINT('',(0.,0.,0.0294083333335499));
#431=CARTESIAN_POINT('',(3.35254999999989,0.,0.0294083333335499));
#432=CARTESIAN_POINT('',(0.,0.,0.147041666666837));
#433=CARTESIAN_POINT('',(0.,0.,0.));
#434=CARTESIAN_POINT('',(3.38195833333299,0.,0.));
#435=CARTESIAN_POINT('',(0.,0.,0.0294083333335499));
#436=CARTESIAN_POINT('',(0.,0.,0.));
#437=CARTESIAN_POINT('',(0.,0.,-3.02789166666651));
#438=CARTESIAN_POINT('',(6.25,0.,-3.02789166666651));
#439=CARTESIAN_POINT('',(0.,0.,-3.02789166666651));
#440=CARTESIAN_POINT('',(8.5,0.,-3.02789166666651));
#441=CARTESIAN_POINT('',(0.,-8.5,-3.02789166666651));
#442=CARTESIAN_POINT('',(0.,0.,-13.0278916666665));
#443=CARTESIAN_POINT('',(6.25,0.,-13.0278916666665));
#444=CARTESIAN_POINT('',(0.,0.,-12.8514416666663));
#445=CARTESIAN_POINT('',(0.,0.,-13.0278916666665));
#446=CARTESIAN_POINT('',(8.5,0.,-13.0278916666665));
#447=CARTESIAN_POINT('',(0.,-6.25,-13.0278916666665));
#448=CARTESIAN_POINT('',(0.,0.,-12.8514416666663));
#449=CARTESIAN_POINT('',(0.,0.,0.));
#450=CARTESIAN_POINT('',(5.14645833333299,0.,0.));
#451=CARTESIAN_POINT('',(0.,0.,0.));
#452=CARTESIAN_POINT('',(0.,0.,-12.8514416666663));
#453=CARTESIAN_POINT('',(7.33729166666649,0.,-12.8514416666663));
#454=CARTESIAN_POINT('',(0.,-7.33729166666666,-12.8514416666663));
#455=CARTESIAN_POINT('',(0.,0.,-12.1014416666663));
#456=CARTESIAN_POINT('',(8.08729166666672,0.,-12.1014416666663));
#457=CARTESIAN_POINT('',(0.,0.,-12.1014416666663));
#458=CARTESIAN_POINT('',(0.,0.,-2.35266666666678));
#459=CARTESIAN_POINT('',(8.08729166666672,0.,-2.35266666666678));
#460=CARTESIAN_POINT('',(0.,0.,-12.8514416666663));
#461=CARTESIAN_POINT('',(0.,0.,-1.35278333333304));
#462=CARTESIAN_POINT('',(6.38160833333319,0.,-1.35278333333304));
#463=CARTESIAN_POINT('',(0.,0.,-1.35278333333304));
#464=CARTESIAN_POINT('',(0.,0.,-1.35278333333304));
#465=CARTESIAN_POINT('',(5.4993583333333,0.,-1.35278333333304));
#466=CARTESIAN_POINT('',(0.,-5.4993583333333,-1.35278333333304));
#467=CARTESIAN_POINT('',(0.,0.,-0.35290000000009));
#468=CARTESIAN_POINT('',(5.4993583333333,0.,-0.35290000000009));
#469=CARTESIAN_POINT('',(0.,0.,-12.8514416666663));
#470=CARTESIAN_POINT('',(0.,0.,0.));
#471=MECHANICAL_DESIGN_GEOMETRIC_PRESENTATION_REPRESENTATION('',(#26,#27,
#28),#472);
#472=(
GEOMETRIC_REPRESENTATION_CONTEXT(3)
GLOBAL_UNCERTAINTY_ASSIGNED_CONTEXT((#473))
GLOBAL_UNIT_ASSIGNED_CONTEXT((#479,#475,#474))
REPRESENTATION_CONTEXT('02602334','TOP_LEVEL_ASSEMBLY_PART')
);
#473=UNCERTAINTY_MEASURE_WITH_UNIT(LENGTH_MEASURE(2.E-005),#479,
'DISTANCE_ACCURACY_VALUE','Maximum Tolerance applied to model');
#474=(
NAMED_UNIT(*)
SI_UNIT($,.STERADIAN.)
SOLID_ANGLE_UNIT()
);
#475=(
CONVERSION_BASED_UNIT('DEGREE',#477)
NAMED_UNIT(#476)
PLANE_ANGLE_UNIT()
);
#476=DIMENSIONAL_EXPONENTS(0.,0.,0.,0.,0.,0.,0.);
#477=PLANE_ANGLE_MEASURE_WITH_UNIT(PLANE_ANGLE_MEASURE(0.0174532925),#478);
#478=(
NAMED_UNIT(*)
PLANE_ANGLE_UNIT()
SI_UNIT($,.RADIAN.)
);
#479=(
LENGTH_UNIT()
NAMED_UNIT(*)
SI_UNIT(.MILLI.,.METRE.)
);
ENDSEC;
END-ISO-10303-21;
