ISO-10303-21;
HEADER;
/* Generated by software containing ST-Developer
 * from STEP Tools, Inc. (www.steptools.com) 
 */
/* OPTION: using custom schema-name function */

FILE_DESCRIPTION(
/* description */ (''),
/* implementation_level */ '2;1');

FILE_NAME(
/* name */ '02602331.stp',
/* time_stamp */ '2012-03-29T16:31:51+05:00',
/* author */ (''),
/* organization */ (''),
/* preprocessor_version */ 'ST-DEVELOPER v11',
/* originating_system */ 'SIEMENS PLM Software NX 7.5',
/* authorisation */ '');

FILE_SCHEMA (('AUTOMOTIVE_DESIGN { 1 0 10303 214 1 1 1 1 }'));
ENDSEC;

DATA;
#10=SHAPE_REPRESENTATION_RELATIONSHIP('None',
'relationship between inpuC3D1mmwg-None and inpuC3D1mmwg-None',#22,#11);
#11=ADVANCED_BREP_SHAPE_REPRESENTATION('inpuC3D1mmwg-None',(#49,#50,#51),
#532);
#12=SHAPE_DEFINITION_REPRESENTATION(#13,#22);
#13=PRODUCT_DEFINITION_SHAPE('','',#14);
#14=PRODUCT_DEFINITION(' ','',#16,#15);
#15=PRODUCT_DEFINITION_CONTEXT('part definition',#21,'design');
#16=PRODUCT_DEFINITION_FORMATION_WITH_SPECIFIED_SOURCE(' ',' ',#18,.NOT_KNOWN.);
#17=PRODUCT_RELATED_PRODUCT_CATEGORY('part','',(#18));
#18=PRODUCT('inpuC3D1mmwg','inpuC3D1mmwg',' ',(#19));
#19=PRODUCT_CONTEXT(' ',#21,'mechanical');
#20=APPLICATION_PROTOCOL_DEFINITION('international standard',
'automotive_design',2001,#21);
#21=APPLICATION_CONTEXT(
'core data for automotive mechanical design processes');
#22=SHAPE_REPRESENTATION('inpuC3D1mmwg-None',(#312),#532);
#23=PRESENTATION_LAYER_ASSIGNMENT('1','Layer 1',(#49));
#24=PRESENTATION_LAYER_ASSIGNMENT('3','Layer 3',(#50));
#25=PRESENTATION_LAYER_ASSIGNMENT('2','Layer 2',(#51));
#26=STYLED_ITEM('',(#29),#49);
#27=STYLED_ITEM('',(#30),#50);
#28=STYLED_ITEM('',(#31),#51);
#29=PRESENTATION_STYLE_ASSIGNMENT((#32));
#30=PRESENTATION_STYLE_ASSIGNMENT((#33));
#31=PRESENTATION_STYLE_ASSIGNMENT((#34));
#32=SURFACE_STYLE_USAGE(.BOTH.,#35);
#33=SURFACE_STYLE_USAGE(.BOTH.,#36);
#34=SURFACE_STYLE_USAGE(.BOTH.,#37);
#35=SURFACE_SIDE_STYLE('',(#38));
#36=SURFACE_SIDE_STYLE('',(#39));
#37=SURFACE_SIDE_STYLE('',(#40));
#38=SURFACE_STYLE_FILL_AREA(#41);
#39=SURFACE_STYLE_FILL_AREA(#42);
#40=SURFACE_STYLE_FILL_AREA(#43);
#41=FILL_AREA_STYLE('',(#44));
#42=FILL_AREA_STYLE('',(#45));
#43=FILL_AREA_STYLE('',(#46));
#44=FILL_AREA_STYLE_COLOUR('',#47);
#45=FILL_AREA_STYLE_COLOUR('',#48);
#46=FILL_AREA_STYLE_COLOUR('',#47);
#47=COLOUR_RGB('Medium Gray',0.490196078431373,0.490196078431373,0.490196078431373);
#48=COLOUR_RGB('Light Gray',0.8,0.8,0.8);
#49=MANIFOLD_SOLID_BREP('',#52);
#50=MANIFOLD_SOLID_BREP('',#53);
#51=MANIFOLD_SOLID_BREP('',#54);
#52=CLOSED_SHELL('',(#115,#116,#117,#118,#119,#120,#121,#122,#123,#124,#125,
#126,#127));
#53=CLOSED_SHELL('',(#128,#129,#130,#131));
#54=CLOSED_SHELL('',(#132,#133,#134,#135,#136,#137,#138,#139));
#55=CYLINDRICAL_SURFACE('',#318,3.4995916666665);
#56=CYLINDRICAL_SURFACE('',#324,3.3231416666666);
#57=CYLINDRICAL_SURFACE('',#328,3.29373333333331);
#58=CYLINDRICAL_SURFACE('',#332,3.3231416666666);
#59=CYLINDRICAL_SURFACE('',#336,3.38195833333327);
#60=CYLINDRICAL_SURFACE('',#340,7.49999999999997);
#61=CYLINDRICAL_SURFACE('',#344,5.25);
#62=CYLINDRICAL_SURFACE('',#351,7.11681666666661);
#63=CYLINDRICAL_SURFACE('',#357,5.49935833333319);
#64=CONICAL_SURFACE('',#316,3.23491666666661,27.897271030926);
#65=CONICAL_SURFACE('',#320,3.4995916666665,22.6198649480208);
#66=CONICAL_SURFACE('',#322,3.35254999999989,44.9999999999734);
#67=CONICAL_SURFACE('',#326,3.3231416666666,44.9999999997499);
#68=CONICAL_SURFACE('',#330,3.29373333333331,18.4349488228828);
#69=CONICAL_SURFACE('',#334,3.3231416666666,33.6900675259588);
#70=CONICAL_SURFACE('',#349,7.11681666666661,44.9999999999956);
#71=CONICAL_SURFACE('',#353,5.85225833333331,58.840695491661);
#72=CONICAL_SURFACE('',#359,5.17586666666659,45.0000000000251);
#73=FACE_BOUND('',#152,.T.);
#74=FACE_BOUND('',#153,.T.);
#75=FACE_BOUND('',#154,.T.);
#76=FACE_BOUND('',#155,.T.);
#77=FACE_BOUND('',#156,.T.);
#78=FACE_BOUND('',#157,.T.);
#79=FACE_BOUND('',#158,.T.);
#80=FACE_BOUND('',#159,.T.);
#81=FACE_BOUND('',#160,.T.);
#82=FACE_BOUND('',#161,.T.);
#83=FACE_BOUND('',#162,.T.);
#84=FACE_BOUND('',#163,.T.);
#85=FACE_BOUND('',#164,.T.);
#86=FACE_BOUND('',#165,.T.);
#87=FACE_BOUND('',#166,.T.);
#88=FACE_BOUND('',#167,.T.);
#89=FACE_BOUND('',#168,.T.);
#90=FACE_BOUND('',#169,.T.);
#91=FACE_BOUND('',#170,.T.);
#92=FACE_BOUND('',#171,.T.);
#93=FACE_BOUND('',#172,.T.);
#94=FACE_BOUND('',#173,.T.);
#95=FACE_BOUND('',#175,.T.);
#96=FACE_BOUND('',#176,.T.);
#97=FACE_BOUND('',#177,.T.);
#98=FACE_BOUND('',#178,.T.);
#99=FACE_BOUND('',#179,.T.);
#100=FACE_BOUND('',#180,.T.);
#101=FACE_BOUND('',#181,.T.);
#102=FACE_BOUND('',#182,.T.);
#103=FACE_BOUND('',#184,.T.);
#104=FACE_BOUND('',#185,.T.);
#105=FACE_BOUND('',#186,.T.);
#106=FACE_BOUND('',#187,.T.);
#107=FACE_BOUND('',#188,.T.);
#108=FACE_BOUND('',#189,.T.);
#109=FACE_BOUND('',#190,.T.);
#110=FACE_BOUND('',#191,.T.);
#111=FACE_BOUND('',#192,.T.);
#112=FACE_BOUND('',#193,.T.);
#113=FACE_BOUND('',#194,.T.);
#114=FACE_BOUND('',#195,.T.);
#115=ADVANCED_FACE('',(#147),#140,.F.);
#116=ADVANCED_FACE('',(#73,#74),#64,.T.);
#117=ADVANCED_FACE('',(#75,#76),#55,.T.);
#118=ADVANCED_FACE('',(#77,#78),#65,.T.);
#119=ADVANCED_FACE('',(#79,#80),#66,.T.);
#120=ADVANCED_FACE('',(#81,#82),#56,.T.);
#121=ADVANCED_FACE('',(#83,#84),#67,.T.);
#122=ADVANCED_FACE('',(#85,#86),#57,.T.);
#123=ADVANCED_FACE('',(#87,#88),#68,.T.);
#124=ADVANCED_FACE('',(#89,#90),#58,.T.);
#125=ADVANCED_FACE('',(#91,#92),#69,.T.);
#126=ADVANCED_FACE('',(#93,#94),#59,.T.);
#127=ADVANCED_FACE('',(#148),#141,.F.);
#128=ADVANCED_FACE('',(#95,#96),#60,.T.);
#129=ADVANCED_FACE('',(#97,#98),#142,.F.);
#130=ADVANCED_FACE('',(#99,#100),#61,.F.);
#131=ADVANCED_FACE('',(#101,#102),#143,.F.);
#132=ADVANCED_FACE('',(#149),#144,.F.);
#133=ADVANCED_FACE('',(#103,#104),#70,.T.);
#134=ADVANCED_FACE('',(#105,#106),#62,.T.);
#135=ADVANCED_FACE('',(#107,#108),#71,.T.);
#136=ADVANCED_FACE('',(#109,#110),#145,.F.);
#137=ADVANCED_FACE('',(#111,#112),#63,.T.);
#138=ADVANCED_FACE('',(#113,#114),#72,.T.);
#139=ADVANCED_FACE('',(#150),#146,.F.);
#140=PLANE('',#314);
#141=PLANE('',#337);
#142=PLANE('',#342);
#143=PLANE('',#345);
#144=PLANE('',#347);
#145=PLANE('',#355);
#146=PLANE('',#360);
#147=FACE_OUTER_BOUND('',#151,.T.);
#148=FACE_OUTER_BOUND('',#174,.T.);
#149=FACE_OUTER_BOUND('',#183,.T.);
#150=FACE_OUTER_BOUND('',#196,.T.);
#151=EDGE_LOOP('',(#197));
#152=EDGE_LOOP('',(#198));
#153=EDGE_LOOP('',(#199));
#154=EDGE_LOOP('',(#200));
#155=EDGE_LOOP('',(#201));
#156=EDGE_LOOP('',(#202));
#157=EDGE_LOOP('',(#203));
#158=EDGE_LOOP('',(#204));
#159=EDGE_LOOP('',(#205));
#160=EDGE_LOOP('',(#206));
#161=EDGE_LOOP('',(#207));
#162=EDGE_LOOP('',(#208));
#163=EDGE_LOOP('',(#209));
#164=EDGE_LOOP('',(#210));
#165=EDGE_LOOP('',(#211));
#166=EDGE_LOOP('',(#212));
#167=EDGE_LOOP('',(#213));
#168=EDGE_LOOP('',(#214));
#169=EDGE_LOOP('',(#215));
#170=EDGE_LOOP('',(#216));
#171=EDGE_LOOP('',(#217));
#172=EDGE_LOOP('',(#218));
#173=EDGE_LOOP('',(#219));
#174=EDGE_LOOP('',(#220));
#175=EDGE_LOOP('',(#221));
#176=EDGE_LOOP('',(#222));
#177=EDGE_LOOP('',(#223));
#178=EDGE_LOOP('',(#224));
#179=EDGE_LOOP('',(#225));
#180=EDGE_LOOP('',(#226));
#181=EDGE_LOOP('',(#227));
#182=EDGE_LOOP('',(#228));
#183=EDGE_LOOP('',(#229));
#184=EDGE_LOOP('',(#230));
#185=EDGE_LOOP('',(#231));
#186=EDGE_LOOP('',(#232));
#187=EDGE_LOOP('',(#233));
#188=EDGE_LOOP('',(#234));
#189=EDGE_LOOP('',(#235));
#190=EDGE_LOOP('',(#236));
#191=EDGE_LOOP('',(#237));
#192=EDGE_LOOP('',(#238));
#193=EDGE_LOOP('',(#239));
#194=EDGE_LOOP('',(#240));
#195=EDGE_LOOP('',(#241));
#196=EDGE_LOOP('',(#242));
#197=ORIENTED_EDGE('',*,*,#266,.F.);
#198=ORIENTED_EDGE('',*,*,#267,.F.);
#199=ORIENTED_EDGE('',*,*,#266,.T.);
#200=ORIENTED_EDGE('',*,*,#268,.F.);
#201=ORIENTED_EDGE('',*,*,#267,.T.);
#202=ORIENTED_EDGE('',*,*,#269,.F.);
#203=ORIENTED_EDGE('',*,*,#268,.T.);
#204=ORIENTED_EDGE('',*,*,#270,.F.);
#205=ORIENTED_EDGE('',*,*,#269,.T.);
#206=ORIENTED_EDGE('',*,*,#271,.F.);
#207=ORIENTED_EDGE('',*,*,#270,.T.);
#208=ORIENTED_EDGE('',*,*,#272,.F.);
#209=ORIENTED_EDGE('',*,*,#271,.T.);
#210=ORIENTED_EDGE('',*,*,#273,.F.);
#211=ORIENTED_EDGE('',*,*,#272,.T.);
#212=ORIENTED_EDGE('',*,*,#274,.F.);
#213=ORIENTED_EDGE('',*,*,#273,.T.);
#214=ORIENTED_EDGE('',*,*,#275,.F.);
#215=ORIENTED_EDGE('',*,*,#274,.T.);
#216=ORIENTED_EDGE('',*,*,#276,.F.);
#217=ORIENTED_EDGE('',*,*,#275,.T.);
#218=ORIENTED_EDGE('',*,*,#277,.F.);
#219=ORIENTED_EDGE('',*,*,#276,.T.);
#220=ORIENTED_EDGE('',*,*,#277,.T.);
#221=ORIENTED_EDGE('',*,*,#278,.F.);
#222=ORIENTED_EDGE('',*,*,#279,.T.);
#223=ORIENTED_EDGE('',*,*,#280,.F.);
#224=ORIENTED_EDGE('',*,*,#278,.T.);
#225=ORIENTED_EDGE('',*,*,#281,.F.);
#226=ORIENTED_EDGE('',*,*,#280,.T.);
#227=ORIENTED_EDGE('',*,*,#279,.F.);
#228=ORIENTED_EDGE('',*,*,#281,.T.);
#229=ORIENTED_EDGE('',*,*,#282,.T.);
#230=ORIENTED_EDGE('',*,*,#282,.F.);
#231=ORIENTED_EDGE('',*,*,#283,.T.);
#232=ORIENTED_EDGE('',*,*,#283,.F.);
#233=ORIENTED_EDGE('',*,*,#284,.T.);
#234=ORIENTED_EDGE('',*,*,#284,.F.);
#235=ORIENTED_EDGE('',*,*,#285,.T.);
#236=ORIENTED_EDGE('',*,*,#285,.F.);
#237=ORIENTED_EDGE('',*,*,#286,.T.);
#238=ORIENTED_EDGE('',*,*,#286,.F.);
#239=ORIENTED_EDGE('',*,*,#287,.T.);
#240=ORIENTED_EDGE('',*,*,#287,.F.);
#241=ORIENTED_EDGE('',*,*,#288,.T.);
#242=ORIENTED_EDGE('',*,*,#288,.F.);
#243=VERTEX_POINT('',#461);
#244=VERTEX_POINT('',#464);
#245=VERTEX_POINT('',#467);
#246=VERTEX_POINT('',#470);
#247=VERTEX_POINT('',#473);
#248=VERTEX_POINT('',#476);
#249=VERTEX_POINT('',#479);
#250=VERTEX_POINT('',#482);
#251=VERTEX_POINT('',#485);
#252=VERTEX_POINT('',#488);
#253=VERTEX_POINT('',#491);
#254=VERTEX_POINT('',#494);
#255=VERTEX_POINT('',#498);
#256=VERTEX_POINT('',#500);
#257=VERTEX_POINT('',#503);
#258=VERTEX_POINT('',#506);
#259=VERTEX_POINT('',#510);
#260=VERTEX_POINT('',#513);
#261=VERTEX_POINT('',#516);
#262=VERTEX_POINT('',#519);
#263=VERTEX_POINT('',#522);
#264=VERTEX_POINT('',#525);
#265=VERTEX_POINT('',#528);
#266=EDGE_CURVE('',#243,#243,#289,.T.);
#267=EDGE_CURVE('',#244,#244,#290,.T.);
#268=EDGE_CURVE('',#245,#245,#291,.T.);
#269=EDGE_CURVE('',#246,#246,#292,.T.);
#270=EDGE_CURVE('',#247,#247,#293,.T.);
#271=EDGE_CURVE('',#248,#248,#294,.T.);
#272=EDGE_CURVE('',#249,#249,#295,.T.);
#273=EDGE_CURVE('',#250,#250,#296,.T.);
#274=EDGE_CURVE('',#251,#251,#297,.T.);
#275=EDGE_CURVE('',#252,#252,#298,.T.);
#276=EDGE_CURVE('',#253,#253,#299,.T.);
#277=EDGE_CURVE('',#254,#254,#300,.T.);
#278=EDGE_CURVE('',#255,#255,#301,.T.);
#279=EDGE_CURVE('',#256,#256,#302,.T.);
#280=EDGE_CURVE('',#257,#257,#303,.T.);
#281=EDGE_CURVE('',#258,#258,#304,.T.);
#282=EDGE_CURVE('',#259,#259,#305,.T.);
#283=EDGE_CURVE('',#260,#260,#306,.T.);
#284=EDGE_CURVE('',#261,#261,#307,.T.);
#285=EDGE_CURVE('',#262,#262,#308,.T.);
#286=EDGE_CURVE('',#263,#263,#309,.T.);
#287=EDGE_CURVE('',#264,#264,#310,.T.);
#288=EDGE_CURVE('',#265,#265,#311,.T.);
#289=CIRCLE('',#313,3.23491666666661);
#290=CIRCLE('',#315,3.4995916666665);
#291=CIRCLE('',#317,3.4995916666665);
#292=CIRCLE('',#319,3.35254999999989);
#293=CIRCLE('',#321,3.3231416666666);
#294=CIRCLE('',#323,3.3231416666666);
#295=CIRCLE('',#325,3.29373333333331);
#296=CIRCLE('',#327,3.29373333333331);
#297=CIRCLE('',#329,3.3231416666666);
#298=CIRCLE('',#331,3.3231416666666);
#299=CIRCLE('',#333,3.38195833333327);
#300=CIRCLE('',#335,3.38195833333327);
#301=CIRCLE('',#338,7.49999999999997);
#302=CIRCLE('',#339,7.49999999999997);
#303=CIRCLE('',#341,5.25);
#304=CIRCLE('',#343,5.25);
#305=CIRCLE('',#346,6.36681666666661);
#306=CIRCLE('',#348,7.11681666666661);
#307=CIRCLE('',#350,7.11681666666661);
#308=CIRCLE('',#352,5.85225833333331);
#309=CIRCLE('',#354,5.49935833333319);
#310=CIRCLE('',#356,5.49935833333319);
#311=CIRCLE('',#358,5.17586666666659);
#312=AXIS2_PLACEMENT_3D('',#459,#361,#362);
#313=AXIS2_PLACEMENT_3D('',#460,#363,#364);
#314=AXIS2_PLACEMENT_3D('',#462,#365,#366);
#315=AXIS2_PLACEMENT_3D('',#463,#367,#368);
#316=AXIS2_PLACEMENT_3D('',#465,#369,#370);
#317=AXIS2_PLACEMENT_3D('',#466,#371,#372);
#318=AXIS2_PLACEMENT_3D('',#468,#373,#374);
#319=AXIS2_PLACEMENT_3D('',#469,#375,#376);
#320=AXIS2_PLACEMENT_3D('',#471,#377,#378);
#321=AXIS2_PLACEMENT_3D('',#472,#379,#380);
#322=AXIS2_PLACEMENT_3D('',#474,#381,#382);
#323=AXIS2_PLACEMENT_3D('',#475,#383,#384);
#324=AXIS2_PLACEMENT_3D('',#477,#385,#386);
#325=AXIS2_PLACEMENT_3D('',#478,#387,#388);
#326=AXIS2_PLACEMENT_3D('',#480,#389,#390);
#327=AXIS2_PLACEMENT_3D('',#481,#391,#392);
#328=AXIS2_PLACEMENT_3D('',#483,#393,#394);
#329=AXIS2_PLACEMENT_3D('',#484,#395,#396);
#330=AXIS2_PLACEMENT_3D('',#486,#397,#398);
#331=AXIS2_PLACEMENT_3D('',#487,#399,#400);
#332=AXIS2_PLACEMENT_3D('',#489,#401,#402);
#333=AXIS2_PLACEMENT_3D('',#490,#403,#404);
#334=AXIS2_PLACEMENT_3D('',#492,#405,#406);
#335=AXIS2_PLACEMENT_3D('',#493,#407,#408);
#336=AXIS2_PLACEMENT_3D('',#495,#409,#410);
#337=AXIS2_PLACEMENT_3D('',#496,#411,#412);
#338=AXIS2_PLACEMENT_3D('',#497,#413,#414);
#339=AXIS2_PLACEMENT_3D('',#499,#415,#416);
#340=AXIS2_PLACEMENT_3D('',#501,#417,#418);
#341=AXIS2_PLACEMENT_3D('',#502,#419,#420);
#342=AXIS2_PLACEMENT_3D('',#504,#421,#422);
#343=AXIS2_PLACEMENT_3D('',#505,#423,#424);
#344=AXIS2_PLACEMENT_3D('',#507,#425,#426);
#345=AXIS2_PLACEMENT_3D('',#508,#427,#428);
#346=AXIS2_PLACEMENT_3D('',#509,#429,#430);
#347=AXIS2_PLACEMENT_3D('',#511,#431,#432);
#348=AXIS2_PLACEMENT_3D('',#512,#433,#434);
#349=AXIS2_PLACEMENT_3D('',#514,#435,#436);
#350=AXIS2_PLACEMENT_3D('',#515,#437,#438);
#351=AXIS2_PLACEMENT_3D('',#517,#439,#440);
#352=AXIS2_PLACEMENT_3D('',#518,#441,#442);
#353=AXIS2_PLACEMENT_3D('',#520,#443,#444);
#354=AXIS2_PLACEMENT_3D('',#521,#445,#446);
#355=AXIS2_PLACEMENT_3D('',#523,#447,#448);
#356=AXIS2_PLACEMENT_3D('',#524,#449,#450);
#357=AXIS2_PLACEMENT_3D('',#526,#451,#452);
#358=AXIS2_PLACEMENT_3D('',#527,#453,#454);
#359=AXIS2_PLACEMENT_3D('',#529,#455,#456);
#360=AXIS2_PLACEMENT_3D('',#530,#457,#458);
#361=DIRECTION('',(0.,0.,1.));
#362=DIRECTION('',(1.,0.,0.));
#363=DIRECTION('',(0.,0.,-1.));
#364=DIRECTION('',(-1.,0.,0.));
#365=DIRECTION('',(0.,0.,-1.));
#366=DIRECTION('',(-1.,0.,0.));
#367=DIRECTION('',(0.,0.,-1.));
#368=DIRECTION('',(-1.,0.,0.));
#369=DIRECTION('',(0.,0.,-1.));
#370=DIRECTION('',(-1.,0.,-5.53655924704918E-017));
#371=DIRECTION('',(0.,0.,-1.));
#372=DIRECTION('',(-1.,0.,0.));
#373=DIRECTION('',(0.,0.,-1.));
#374=DIRECTION('',(-1.,0.,0.));
#375=DIRECTION('',(0.,0.,-1.));
#376=DIRECTION('',(-1.,0.,0.));
#377=DIRECTION('',(0.,0.,1.));
#378=DIRECTION('',(1.,0.,-2.18818961312022E-016));
#379=DIRECTION('',(0.,0.,-1.));
#380=DIRECTION('',(-1.,0.,0.));
#381=DIRECTION('',(0.,0.,1.));
#382=DIRECTION('',(1.,0.,-9.8548848189771E-017));
#383=DIRECTION('',(0.,0.,-1.));
#384=DIRECTION('',(-1.,0.,0.));
#385=DIRECTION('',(0.,0.,-1.));
#386=DIRECTION('',(-1.,0.,0.));
#387=DIRECTION('',(0.,0.,-1.));
#388=DIRECTION('',(-1.,0.,0.));
#389=DIRECTION('',(0.,0.,1.));
#390=DIRECTION('',(1.,0.,-7.26170691833455E-017));
#391=DIRECTION('',(0.,0.,-1.));
#392=DIRECTION('',(-1.,0.,0.));
#393=DIRECTION('',(0.,0.,-1.));
#394=DIRECTION('',(-1.,0.,0.));
#395=DIRECTION('',(0.,0.,-1.));
#396=DIRECTION('',(-1.,0.,0.));
#397=DIRECTION('',(0.,0.,-1.));
#398=DIRECTION('',(-1.,0.,9.79117525218821E-017));
#399=DIRECTION('',(0.,0.,-1.));
#400=DIRECTION('',(-1.,0.,0.));
#401=DIRECTION('',(0.,0.,-1.));
#402=DIRECTION('',(-1.,0.,0.));
#403=DIRECTION('',(0.,0.,-1.));
#404=DIRECTION('',(-1.,0.,0.));
#405=DIRECTION('',(0.,0.,-1.));
#406=DIRECTION('',(-1.,0.,-5.95511147352374E-017));
#407=DIRECTION('',(0.,0.,-1.));
#408=DIRECTION('',(-1.,0.,0.));
#409=DIRECTION('',(0.,0.,-1.));
#410=DIRECTION('',(-1.,0.,0.));
#411=DIRECTION('',(0.,0.,1.));
#412=DIRECTION('',(1.,0.,0.));
#413=DIRECTION('',(0.,0.,1.));
#414=DIRECTION('',(1.,0.,0.));
#415=DIRECTION('',(0.,0.,1.));
#416=DIRECTION('',(1.,0.,0.));
#417=DIRECTION('',(0.,0.,1.));
#418=DIRECTION('',(1.,0.,0.));
#419=DIRECTION('',(0.,0.,1.));
#420=DIRECTION('',(1.,0.,0.));
#421=DIRECTION('',(0.,0.,-1.));
#422=DIRECTION('',(-1.,0.,0.));
#423=DIRECTION('',(0.,0.,1.));
#424=DIRECTION('',(1.,0.,0.));
#425=DIRECTION('',(0.,0.,1.));
#426=DIRECTION('',(1.,0.,0.));
#427=DIRECTION('',(0.,0.,1.));
#428=DIRECTION('',(1.,0.,0.));
#429=DIRECTION('',(0.,0.,-1.));
#430=DIRECTION('',(-1.,0.,0.));
#431=DIRECTION('',(0.,0.,1.));
#432=DIRECTION('',(1.,0.,0.));
#433=DIRECTION('',(0.,0.,-1.));
#434=DIRECTION('',(-1.,0.,0.));
#435=DIRECTION('',(0.,0.,1.));
#436=DIRECTION('',(1.,0.,-3.61717651742635E-017));
#437=DIRECTION('',(0.,0.,-1.));
#438=DIRECTION('',(-1.,0.,0.));
#439=DIRECTION('',(0.,0.,-1.));
#440=DIRECTION('',(-1.,0.,0.));
#441=DIRECTION('',(0.,0.,-1.));
#442=DIRECTION('',(-1.,0.,0.));
#443=DIRECTION('',(0.,0.,-1.));
#444=DIRECTION('',(-1.,0.,-4.59889775050944E-017));
#445=DIRECTION('',(0.,0.,-1.));
#446=DIRECTION('',(-1.,0.,0.));
#447=DIRECTION('',(0.,0.,-1.));
#448=DIRECTION('',(-1.,0.,0.));
#449=DIRECTION('',(0.,0.,-1.));
#450=DIRECTION('',(-1.,0.,0.));
#451=DIRECTION('',(0.,0.,-1.));
#452=DIRECTION('',(-1.,0.,0.));
#453=DIRECTION('',(0.,0.,-1.));
#454=DIRECTION('',(-1.,0.,0.));
#455=DIRECTION('',(0.,0.,-1.));
#456=DIRECTION('',(-1.,0.,0.));
#457=DIRECTION('',(0.,0.,-1.));
#458=DIRECTION('',(-1.,0.,0.));
#459=CARTESIAN_POINT('',(0.,0.,0.));
#460=CARTESIAN_POINT('',(0.,2.8421709430404E-014,11.5280666666671));
#461=CARTESIAN_POINT('',(-3.23491666666661,2.8421709430404E-014,11.5280666666671));
#462=CARTESIAN_POINT('',(0.,2.8421709430404E-014,11.5280666666671));
#463=CARTESIAN_POINT('',(0.,2.8421709430404E-014,11.0281250000002));
#464=CARTESIAN_POINT('',(-3.4995916666665,2.8421709430404E-014,11.0281250000002));
#465=CARTESIAN_POINT('',(0.,2.8421709430404E-014,11.5280666666671));
#466=CARTESIAN_POINT('',(0.,2.8421709430404E-014,1.08810833333371));
#467=CARTESIAN_POINT('',(-3.4995916666665,2.8421709430404E-014,1.08810833333371));
#468=CARTESIAN_POINT('',(0.,2.8421709430404E-014,11.5280666666671));
#469=CARTESIAN_POINT('',(0.,2.8421709430404E-014,0.735208333333503));
#470=CARTESIAN_POINT('',(-3.35254999999989,2.8421709430404E-014,0.735208333333503));
#471=CARTESIAN_POINT('',(0.,2.8421709430404E-014,1.08810833333371));
#472=CARTESIAN_POINT('',(0.,2.8421709430404E-014,0.705800000000182));
#473=CARTESIAN_POINT('',(-3.3231416666666,2.8421709430404E-014,0.705800000000182));
#474=CARTESIAN_POINT('',(0.,2.8421709430404E-014,0.735208333333503));
#475=CARTESIAN_POINT('',(0.,2.8421709430404E-014,0.617575000000443));
#476=CARTESIAN_POINT('',(-3.3231416666666,2.8421709430404E-014,0.617575000000443));
#477=CARTESIAN_POINT('',(0.,2.8421709430404E-014,11.5280666666671));
#478=CARTESIAN_POINT('',(0.,2.8421709430404E-014,0.588166666666893));
#479=CARTESIAN_POINT('',(-3.29373333333331,2.8421709430404E-014,0.588166666666893));
#480=CARTESIAN_POINT('',(0.,2.8421709430404E-014,0.617575000000443));
#481=CARTESIAN_POINT('',(0.,2.8421709430404E-014,0.264675000000126));
#482=CARTESIAN_POINT('',(-3.29373333333331,2.8421709430404E-014,0.264675000000126));
#483=CARTESIAN_POINT('',(0.,2.8421709430404E-014,11.5280666666671));
#484=CARTESIAN_POINT('',(0.,2.8421709430404E-014,0.176450000000045));
#485=CARTESIAN_POINT('',(-3.3231416666666,2.8421709430404E-014,0.176450000000045));
#486=CARTESIAN_POINT('',(0.,2.8421709430404E-014,0.264675000000126));
#487=CARTESIAN_POINT('',(0.,2.8421709430404E-014,0.117633333333629));
#488=CARTESIAN_POINT('',(-3.3231416666666,2.8421709430404E-014,0.117633333333629));
#489=CARTESIAN_POINT('',(0.,2.8421709430404E-014,11.5280666666671));
#490=CARTESIAN_POINT('',(0.,2.8421709430404E-014,0.0294083333335499));
#491=CARTESIAN_POINT('',(-3.38195833333327,2.8421709430404E-014,0.0294083333335499));
#492=CARTESIAN_POINT('',(0.,2.8421709430404E-014,0.117633333333629));
#493=CARTESIAN_POINT('',(0.,2.8421709430404E-014,0.));
#494=CARTESIAN_POINT('',(-3.38195833333327,2.8421709430404E-014,0.));
#495=CARTESIAN_POINT('',(0.,2.8421709430404E-014,11.5280666666671));
#496=CARTESIAN_POINT('',(0.,0.,0.));
#497=CARTESIAN_POINT('',(0.,2.8421709430404E-014,-2.9984833333333));
#498=CARTESIAN_POINT('',(7.49999999999997,2.8421709430404E-014,-2.9984833333333));
#499=CARTESIAN_POINT('',(0.,2.8421709430404E-014,-12.9984833333331));
#500=CARTESIAN_POINT('',(7.49999999999997,2.8421709430404E-014,-12.9984833333331));
#501=CARTESIAN_POINT('',(0.,2.8421709430404E-014,-12.8514416666663));
#502=CARTESIAN_POINT('',(0.,2.8421709430404E-014,-2.9984833333333));
#503=CARTESIAN_POINT('',(5.25,2.8421709430404E-014,-2.9984833333333));
#504=CARTESIAN_POINT('',(0.,-7.49999999999994,-2.9984833333333));
#505=CARTESIAN_POINT('',(0.,2.8421709430404E-014,-12.9984833333331));
#506=CARTESIAN_POINT('',(5.25,2.8421709430404E-014,-12.9984833333331));
#507=CARTESIAN_POINT('',(0.,2.8421709430404E-014,-12.8514416666663));
#508=CARTESIAN_POINT('',(0.,-5.24999999999997,-12.9984833333331));
#509=CARTESIAN_POINT('',(0.,2.8421709430404E-014,-12.8514416666663));
#510=CARTESIAN_POINT('',(-6.36681666666661,2.8421709430404E-014,-12.8514416666663));
#511=CARTESIAN_POINT('',(0.,-6.36681666666658,-12.8514416666663));
#512=CARTESIAN_POINT('',(0.,2.8421709430404E-014,-12.1014416666662));
#513=CARTESIAN_POINT('',(-7.11681666666661,2.8421709430404E-014,-12.1014416666662));
#514=CARTESIAN_POINT('',(0.,2.8421709430404E-014,-12.1014416666662));
#515=CARTESIAN_POINT('',(0.,2.8421709430404E-014,-2.08799166666631));
#516=CARTESIAN_POINT('',(-7.11681666666661,2.8421709430404E-014,-2.08799166666631));
#517=CARTESIAN_POINT('',(0.,2.8421709430404E-014,11.5280666666671));
#518=CARTESIAN_POINT('',(0.,2.8421709430404E-014,-1.32337499999983));
#519=CARTESIAN_POINT('',(-5.85225833333331,2.8421709430404E-014,-1.32337499999983));
#520=CARTESIAN_POINT('',(0.,2.8421709430404E-014,-1.32337499999983));
#521=CARTESIAN_POINT('',(0.,2.8421709430404E-014,-1.32337499999983));
#522=CARTESIAN_POINT('',(-5.49935833333319,2.8421709430404E-014,-1.32337499999983));
#523=CARTESIAN_POINT('',(0.,-5.49935833333316,-1.32337499999983));
#524=CARTESIAN_POINT('',(0.,2.8421709430404E-014,-0.323491666666315));
#525=CARTESIAN_POINT('',(-5.49935833333319,2.8421709430404E-014,-0.323491666666315));
#526=CARTESIAN_POINT('',(0.,2.8421709430404E-014,11.5280666666671));
#527=CARTESIAN_POINT('',(0.,2.8421709430404E-014,0.));
#528=CARTESIAN_POINT('',(-5.17586666666659,2.8421709430404E-014,0.));
#529=CARTESIAN_POINT('',(0.,2.8421709430404E-014,0.));
#530=CARTESIAN_POINT('',(0.,-3.38195833333324,0.));
#531=MECHANICAL_DESIGN_GEOMETRIC_PRESENTATION_REPRESENTATION('',(#26,#27,
#28),#532);
#532=(
GEOMETRIC_REPRESENTATION_CONTEXT(3)
GLOBAL_UNCERTAINTY_ASSIGNED_CONTEXT((#533))
GLOBAL_UNIT_ASSIGNED_CONTEXT((#539,#535,#534))
REPRESENTATION_CONTEXT('02602331','TOP_LEVEL_ASSEMBLY_PART')
);
#533=UNCERTAINTY_MEASURE_WITH_UNIT(LENGTH_MEASURE(2.E-005),#539,
'DISTANCE_ACCURACY_VALUE','Maximum Tolerance applied to model');
#534=(
NAMED_UNIT(*)
SI_UNIT($,.STERADIAN.)
SOLID_ANGLE_UNIT()
);
#535=(
CONVERSION_BASED_UNIT('DEGREE',#537)
NAMED_UNIT(#536)
PLANE_ANGLE_UNIT()
);
#536=DIMENSIONAL_EXPONENTS(0.,0.,0.,0.,0.,0.,0.);
#537=PLANE_ANGLE_MEASURE_WITH_UNIT(PLANE_ANGLE_MEASURE(0.0174532925),#538);
#538=(
NAMED_UNIT(*)
PLANE_ANGLE_UNIT()
SI_UNIT($,.RADIAN.)
);
#539=(
LENGTH_UNIT()
NAMED_UNIT(*)
SI_UNIT(.MILLI.,.METRE.)
);
ENDSEC;
END-ISO-10303-21;
