ISO-10303-21;
HEADER;
/* Generated by software containing ST-Developer
 * from STEP Tools, Inc. (www.steptools.com) 
 */
/* OPTION: using custom schema-name function */

FILE_DESCRIPTION(
/* description */ (''),
/* implementation_level */ '2;1');

FILE_NAME(
/* name */ '02602327.stp',
/* time_stamp */ '2012-03-29T16:30:49+05:00',
/* author */ (''),
/* organization */ (''),
/* preprocessor_version */ 'ST-DEVELOPER v11',
/* originating_system */ 'SIEMENS PLM Software NX 7.5',
/* authorisation */ '');

FILE_SCHEMA (('AUTOMOTIVE_DESIGN { 1 0 10303 214 1 1 1 1 }'));
ENDSEC;

DATA;
#10=SHAPE_REPRESENTATION_RELATIONSHIP('None',
'relationship between inpuC3D1mmwb-None and inpuC3D1mmwb-None',#22,#11);
#11=ADVANCED_BREP_SHAPE_REPRESENTATION('inpuC3D1mmwb-None',(#49,#50,#51),
#492);
#12=SHAPE_DEFINITION_REPRESENTATION(#13,#22);
#13=PRODUCT_DEFINITION_SHAPE('','',#14);
#14=PRODUCT_DEFINITION(' ','',#16,#15);
#15=PRODUCT_DEFINITION_CONTEXT('part definition',#21,'design');
#16=PRODUCT_DEFINITION_FORMATION_WITH_SPECIFIED_SOURCE(' ',' ',#18,.NOT_KNOWN.);
#17=PRODUCT_RELATED_PRODUCT_CATEGORY('part','',(#18));
#18=PRODUCT('inpuC3D1mmwb','inpuC3D1mmwb',' ',(#19));
#19=PRODUCT_CONTEXT(' ',#21,'mechanical');
#20=APPLICATION_PROTOCOL_DEFINITION('international standard',
'automotive_design',2001,#21);
#21=APPLICATION_CONTEXT(
'core data for automotive mechanical design processes');
#22=SHAPE_REPRESENTATION('inpuC3D1mmwb-None',(#290),#492);
#23=PRESENTATION_LAYER_ASSIGNMENT('1','Layer 1',(#49));
#24=PRESENTATION_LAYER_ASSIGNMENT('3','Layer 3',(#50));
#25=PRESENTATION_LAYER_ASSIGNMENT('2','Layer 2',(#51));
#26=STYLED_ITEM('',(#29),#49);
#27=STYLED_ITEM('',(#30),#50);
#28=STYLED_ITEM('',(#31),#51);
#29=PRESENTATION_STYLE_ASSIGNMENT((#32));
#30=PRESENTATION_STYLE_ASSIGNMENT((#33));
#31=PRESENTATION_STYLE_ASSIGNMENT((#34));
#32=SURFACE_STYLE_USAGE(.BOTH.,#35);
#33=SURFACE_STYLE_USAGE(.BOTH.,#36);
#34=SURFACE_STYLE_USAGE(.BOTH.,#37);
#35=SURFACE_SIDE_STYLE('',(#38));
#36=SURFACE_SIDE_STYLE('',(#39));
#37=SURFACE_SIDE_STYLE('',(#40));
#38=SURFACE_STYLE_FILL_AREA(#41);
#39=SURFACE_STYLE_FILL_AREA(#42);
#40=SURFACE_STYLE_FILL_AREA(#43);
#41=FILL_AREA_STYLE('',(#44));
#42=FILL_AREA_STYLE('',(#45));
#43=FILL_AREA_STYLE('',(#46));
#44=FILL_AREA_STYLE_COLOUR('',#47);
#45=FILL_AREA_STYLE_COLOUR('',#48);
#46=FILL_AREA_STYLE_COLOUR('',#47);
#47=COLOUR_RGB('Medium Gray',0.490196078431373,0.490196078431373,0.490196078431373);
#48=COLOUR_RGB('Light Gray',0.8,0.8,0.8);
#49=MANIFOLD_SOLID_BREP('',#52);
#50=MANIFOLD_SOLID_BREP('',#53);
#51=MANIFOLD_SOLID_BREP('',#54);
#52=CLOSED_SHELL('',(#73,#74,#75,#76,#77,#78,#79,#80,#81,#82,#83));
#53=CLOSED_SHELL('',(#84,#85,#86,#87));
#54=CLOSED_SHELL('',(#88,#89,#90,#91,#92,#93,#94,#95));
#55=PLANE('',#310);
#56=PLANE('',#311);
#57=PLANE('',#316);
#58=PLANE('',#319);
#59=PLANE('',#321);
#60=PLANE('',#323);
#61=PLANE('',#331);
#62=FACE_OUTER_BOUND('',#161,.T.);
#63=FACE_OUTER_BOUND('',#162,.T.);
#64=FACE_OUTER_BOUND('',#171,.T.);
#65=FACE_OUTER_BOUND('',#172,.T.);
#66=CYLINDRICAL_SURFACE('',#299,3.30843749999988);
#67=CYLINDRICAL_SURFACE('',#303,3.33784583333321);
#68=CYLINDRICAL_SURFACE('',#307,3.51429583333328);
#69=CYLINDRICAL_SURFACE('',#314,4.75);
#70=CYLINDRICAL_SURFACE('',#318,7.);
#71=CYLINDRICAL_SURFACE('',#327,6.63157916666663);
#72=CYLINDRICAL_SURFACE('',#333,5.51406250000008);
#73=ADVANCED_FACE('',(#105,#106),#96,.T.);
#74=ADVANCED_FACE('',(#107,#108),#97,.T.);
#75=ADVANCED_FACE('',(#109,#110),#98,.T.);
#76=ADVANCED_FACE('',(#111,#112),#66,.T.);
#77=ADVANCED_FACE('',(#113,#114),#99,.T.);
#78=ADVANCED_FACE('',(#115,#116),#67,.T.);
#79=ADVANCED_FACE('',(#117,#118),#100,.T.);
#80=ADVANCED_FACE('',(#119,#120),#68,.T.);
#81=ADVANCED_FACE('',(#121,#122),#101,.T.);
#82=ADVANCED_FACE('',(#62),#55,.F.);
#83=ADVANCED_FACE('',(#63),#56,.F.);
#84=ADVANCED_FACE('',(#123,#124),#69,.F.);
#85=ADVANCED_FACE('',(#125,#126),#57,.F.);
#86=ADVANCED_FACE('',(#127,#128),#70,.T.);
#87=ADVANCED_FACE('',(#129,#130),#58,.F.);
#88=ADVANCED_FACE('',(#64),#59,.T.);
#89=ADVANCED_FACE('',(#65),#60,.F.);
#90=ADVANCED_FACE('',(#131,#132),#102,.T.);
#91=ADVANCED_FACE('',(#133,#134),#71,.T.);
#92=ADVANCED_FACE('',(#135,#136),#103,.T.);
#93=ADVANCED_FACE('',(#137,#138),#61,.F.);
#94=ADVANCED_FACE('',(#139,#140),#72,.T.);
#95=ADVANCED_FACE('',(#141,#142),#104,.T.);
#96=CONICAL_SURFACE('',#293,3.39666249999991,45.0000000002767);
#97=CONICAL_SURFACE('',#295,3.36725416666658,18.434948822955);
#98=CONICAL_SURFACE('',#297,3.33784583333321,26.5650511769458);
#99=CONICAL_SURFACE('',#301,3.30843749999988,45.0000000002226);
#100=CONICAL_SURFACE('',#305,3.33784583333321,26.5650511770779);
#101=CONICAL_SURFACE('',#309,3.51429583333328,30.4655449194559);
#102=CONICAL_SURFACE('',#325,5.8815791666666,45.0000000000011);
#103=CONICAL_SURFACE('',#329,6.63157916666663,59.0362434679352);
#104=CONICAL_SURFACE('',#334,5.51406250000008,47.4895529220094);
#105=FACE_BOUND('',#143,.T.);
#106=FACE_BOUND('',#144,.T.);
#107=FACE_BOUND('',#145,.T.);
#108=FACE_BOUND('',#146,.T.);
#109=FACE_BOUND('',#147,.T.);
#110=FACE_BOUND('',#148,.T.);
#111=FACE_BOUND('',#149,.T.);
#112=FACE_BOUND('',#150,.T.);
#113=FACE_BOUND('',#151,.T.);
#114=FACE_BOUND('',#152,.T.);
#115=FACE_BOUND('',#153,.T.);
#116=FACE_BOUND('',#154,.T.);
#117=FACE_BOUND('',#155,.T.);
#118=FACE_BOUND('',#156,.T.);
#119=FACE_BOUND('',#157,.T.);
#120=FACE_BOUND('',#158,.T.);
#121=FACE_BOUND('',#159,.T.);
#122=FACE_BOUND('',#160,.T.);
#123=FACE_BOUND('',#163,.T.);
#124=FACE_BOUND('',#164,.T.);
#125=FACE_BOUND('',#165,.T.);
#126=FACE_BOUND('',#166,.T.);
#127=FACE_BOUND('',#167,.T.);
#128=FACE_BOUND('',#168,.T.);
#129=FACE_BOUND('',#169,.T.);
#130=FACE_BOUND('',#170,.T.);
#131=FACE_BOUND('',#173,.T.);
#132=FACE_BOUND('',#174,.T.);
#133=FACE_BOUND('',#175,.T.);
#134=FACE_BOUND('',#176,.T.);
#135=FACE_BOUND('',#177,.T.);
#136=FACE_BOUND('',#178,.T.);
#137=FACE_BOUND('',#179,.T.);
#138=FACE_BOUND('',#180,.T.);
#139=FACE_BOUND('',#181,.T.);
#140=FACE_BOUND('',#182,.T.);
#141=FACE_BOUND('',#183,.T.);
#142=FACE_BOUND('',#184,.T.);
#143=EDGE_LOOP('',(#185));
#144=EDGE_LOOP('',(#186));
#145=EDGE_LOOP('',(#187));
#146=EDGE_LOOP('',(#188));
#147=EDGE_LOOP('',(#189));
#148=EDGE_LOOP('',(#190));
#149=EDGE_LOOP('',(#191));
#150=EDGE_LOOP('',(#192));
#151=EDGE_LOOP('',(#193));
#152=EDGE_LOOP('',(#194));
#153=EDGE_LOOP('',(#195));
#154=EDGE_LOOP('',(#196));
#155=EDGE_LOOP('',(#197));
#156=EDGE_LOOP('',(#198));
#157=EDGE_LOOP('',(#199));
#158=EDGE_LOOP('',(#200));
#159=EDGE_LOOP('',(#201));
#160=EDGE_LOOP('',(#202));
#161=EDGE_LOOP('',(#203));
#162=EDGE_LOOP('',(#204));
#163=EDGE_LOOP('',(#205));
#164=EDGE_LOOP('',(#206));
#165=EDGE_LOOP('',(#207));
#166=EDGE_LOOP('',(#208));
#167=EDGE_LOOP('',(#209));
#168=EDGE_LOOP('',(#210));
#169=EDGE_LOOP('',(#211));
#170=EDGE_LOOP('',(#212));
#171=EDGE_LOOP('',(#213));
#172=EDGE_LOOP('',(#214));
#173=EDGE_LOOP('',(#215));
#174=EDGE_LOOP('',(#216));
#175=EDGE_LOOP('',(#217));
#176=EDGE_LOOP('',(#218));
#177=EDGE_LOOP('',(#219));
#178=EDGE_LOOP('',(#220));
#179=EDGE_LOOP('',(#221));
#180=EDGE_LOOP('',(#222));
#181=EDGE_LOOP('',(#223));
#182=EDGE_LOOP('',(#224));
#183=EDGE_LOOP('',(#225));
#184=EDGE_LOOP('',(#226));
#185=ORIENTED_EDGE('',*,*,#248,.F.);
#186=ORIENTED_EDGE('',*,*,#249,.T.);
#187=ORIENTED_EDGE('',*,*,#250,.F.);
#188=ORIENTED_EDGE('',*,*,#248,.T.);
#189=ORIENTED_EDGE('',*,*,#251,.F.);
#190=ORIENTED_EDGE('',*,*,#250,.T.);
#191=ORIENTED_EDGE('',*,*,#252,.F.);
#192=ORIENTED_EDGE('',*,*,#251,.T.);
#193=ORIENTED_EDGE('',*,*,#253,.F.);
#194=ORIENTED_EDGE('',*,*,#252,.T.);
#195=ORIENTED_EDGE('',*,*,#254,.F.);
#196=ORIENTED_EDGE('',*,*,#253,.T.);
#197=ORIENTED_EDGE('',*,*,#255,.F.);
#198=ORIENTED_EDGE('',*,*,#254,.T.);
#199=ORIENTED_EDGE('',*,*,#256,.F.);
#200=ORIENTED_EDGE('',*,*,#255,.T.);
#201=ORIENTED_EDGE('',*,*,#257,.F.);
#202=ORIENTED_EDGE('',*,*,#256,.T.);
#203=ORIENTED_EDGE('',*,*,#257,.T.);
#204=ORIENTED_EDGE('',*,*,#249,.F.);
#205=ORIENTED_EDGE('',*,*,#258,.F.);
#206=ORIENTED_EDGE('',*,*,#259,.T.);
#207=ORIENTED_EDGE('',*,*,#260,.F.);
#208=ORIENTED_EDGE('',*,*,#258,.T.);
#209=ORIENTED_EDGE('',*,*,#261,.F.);
#210=ORIENTED_EDGE('',*,*,#260,.T.);
#211=ORIENTED_EDGE('',*,*,#259,.F.);
#212=ORIENTED_EDGE('',*,*,#261,.T.);
#213=ORIENTED_EDGE('',*,*,#262,.T.);
#214=ORIENTED_EDGE('',*,*,#263,.F.);
#215=ORIENTED_EDGE('',*,*,#264,.F.);
#216=ORIENTED_EDGE('',*,*,#263,.T.);
#217=ORIENTED_EDGE('',*,*,#265,.F.);
#218=ORIENTED_EDGE('',*,*,#264,.T.);
#219=ORIENTED_EDGE('',*,*,#266,.F.);
#220=ORIENTED_EDGE('',*,*,#265,.T.);
#221=ORIENTED_EDGE('',*,*,#267,.F.);
#222=ORIENTED_EDGE('',*,*,#266,.T.);
#223=ORIENTED_EDGE('',*,*,#268,.F.);
#224=ORIENTED_EDGE('',*,*,#267,.T.);
#225=ORIENTED_EDGE('',*,*,#262,.F.);
#226=ORIENTED_EDGE('',*,*,#268,.T.);
#227=VERTEX_POINT('',#427);
#228=VERTEX_POINT('',#429);
#229=VERTEX_POINT('',#432);
#230=VERTEX_POINT('',#435);
#231=VERTEX_POINT('',#438);
#232=VERTEX_POINT('',#441);
#233=VERTEX_POINT('',#444);
#234=VERTEX_POINT('',#447);
#235=VERTEX_POINT('',#450);
#236=VERTEX_POINT('',#453);
#237=VERTEX_POINT('',#458);
#238=VERTEX_POINT('',#460);
#239=VERTEX_POINT('',#463);
#240=VERTEX_POINT('',#466);
#241=VERTEX_POINT('',#470);
#242=VERTEX_POINT('',#473);
#243=VERTEX_POINT('',#476);
#244=VERTEX_POINT('',#479);
#245=VERTEX_POINT('',#482);
#246=VERTEX_POINT('',#485);
#247=VERTEX_POINT('',#488);
#248=EDGE_CURVE('',#227,#227,#269,.T.);
#249=EDGE_CURVE('',#228,#228,#270,.T.);
#250=EDGE_CURVE('',#229,#229,#271,.T.);
#251=EDGE_CURVE('',#230,#230,#272,.T.);
#252=EDGE_CURVE('',#231,#231,#273,.T.);
#253=EDGE_CURVE('',#232,#232,#274,.T.);
#254=EDGE_CURVE('',#233,#233,#275,.T.);
#255=EDGE_CURVE('',#234,#234,#276,.T.);
#256=EDGE_CURVE('',#235,#235,#277,.T.);
#257=EDGE_CURVE('',#236,#236,#278,.T.);
#258=EDGE_CURVE('',#237,#237,#279,.T.);
#259=EDGE_CURVE('',#238,#238,#280,.T.);
#260=EDGE_CURVE('',#239,#239,#281,.T.);
#261=EDGE_CURVE('',#240,#240,#282,.T.);
#262=EDGE_CURVE('',#241,#241,#283,.T.);
#263=EDGE_CURVE('',#242,#242,#284,.T.);
#264=EDGE_CURVE('',#243,#243,#285,.T.);
#265=EDGE_CURVE('',#244,#244,#286,.T.);
#266=EDGE_CURVE('',#245,#245,#287,.T.);
#267=EDGE_CURVE('',#246,#246,#288,.T.);
#268=EDGE_CURVE('',#247,#247,#289,.T.);
#269=CIRCLE('',#291,3.36725416666658);
#270=CIRCLE('',#292,3.39666249999991);
#271=CIRCLE('',#294,3.33784583333321);
#272=CIRCLE('',#296,3.30843749999988);
#273=CIRCLE('',#298,3.30843749999988);
#274=CIRCLE('',#300,3.33784583333321);
#275=CIRCLE('',#302,3.33784583333321);
#276=CIRCLE('',#304,3.51429583333328);
#277=CIRCLE('',#306,3.51429583333328);
#278=CIRCLE('',#308,3.22021249999997);
#279=CIRCLE('',#312,4.75);
#280=CIRCLE('',#313,4.75);
#281=CIRCLE('',#315,7.);
#282=CIRCLE('',#317,7.);
#283=CIRCLE('',#320,5.1611624999999);
#284=CIRCLE('',#322,5.8815791666666);
#285=CIRCLE('',#324,6.63157916666663);
#286=CIRCLE('',#326,6.63157916666663);
#287=CIRCLE('',#328,5.74932916666657);
#288=CIRCLE('',#330,5.51406250000008);
#289=CIRCLE('',#332,5.51406250000008);
#290=AXIS2_PLACEMENT_3D('',#425,#335,#336);
#291=AXIS2_PLACEMENT_3D('',#426,#337,#338);
#292=AXIS2_PLACEMENT_3D('',#428,#339,#340);
#293=AXIS2_PLACEMENT_3D('',#430,#341,#342);
#294=AXIS2_PLACEMENT_3D('',#431,#343,#344);
#295=AXIS2_PLACEMENT_3D('',#433,#345,#346);
#296=AXIS2_PLACEMENT_3D('',#434,#347,#348);
#297=AXIS2_PLACEMENT_3D('',#436,#349,#350);
#298=AXIS2_PLACEMENT_3D('',#437,#351,#352);
#299=AXIS2_PLACEMENT_3D('',#439,#353,#354);
#300=AXIS2_PLACEMENT_3D('',#440,#355,#356);
#301=AXIS2_PLACEMENT_3D('',#442,#357,#358);
#302=AXIS2_PLACEMENT_3D('',#443,#359,#360);
#303=AXIS2_PLACEMENT_3D('',#445,#361,#362);
#304=AXIS2_PLACEMENT_3D('',#446,#363,#364);
#305=AXIS2_PLACEMENT_3D('',#448,#365,#366);
#306=AXIS2_PLACEMENT_3D('',#449,#367,#368);
#307=AXIS2_PLACEMENT_3D('',#451,#369,#370);
#308=AXIS2_PLACEMENT_3D('',#452,#371,#372);
#309=AXIS2_PLACEMENT_3D('',#454,#373,#374);
#310=AXIS2_PLACEMENT_3D('',#455,#375,#376);
#311=AXIS2_PLACEMENT_3D('',#456,#377,#378);
#312=AXIS2_PLACEMENT_3D('',#457,#379,#380);
#313=AXIS2_PLACEMENT_3D('',#459,#381,#382);
#314=AXIS2_PLACEMENT_3D('',#461,#383,#384);
#315=AXIS2_PLACEMENT_3D('',#462,#385,#386);
#316=AXIS2_PLACEMENT_3D('',#464,#387,#388);
#317=AXIS2_PLACEMENT_3D('',#465,#389,#390);
#318=AXIS2_PLACEMENT_3D('',#467,#391,#392);
#319=AXIS2_PLACEMENT_3D('',#468,#393,#394);
#320=AXIS2_PLACEMENT_3D('',#469,#395,#396);
#321=AXIS2_PLACEMENT_3D('',#471,#397,#398);
#322=AXIS2_PLACEMENT_3D('',#472,#399,#400);
#323=AXIS2_PLACEMENT_3D('',#474,#401,#402);
#324=AXIS2_PLACEMENT_3D('',#475,#403,#404);
#325=AXIS2_PLACEMENT_3D('',#477,#405,#406);
#326=AXIS2_PLACEMENT_3D('',#478,#407,#408);
#327=AXIS2_PLACEMENT_3D('',#480,#409,#410);
#328=AXIS2_PLACEMENT_3D('',#481,#411,#412);
#329=AXIS2_PLACEMENT_3D('',#483,#413,#414);
#330=AXIS2_PLACEMENT_3D('',#484,#415,#416);
#331=AXIS2_PLACEMENT_3D('',#486,#417,#418);
#332=AXIS2_PLACEMENT_3D('',#487,#419,#420);
#333=AXIS2_PLACEMENT_3D('',#489,#421,#422);
#334=AXIS2_PLACEMENT_3D('',#490,#423,#424);
#335=DIRECTION('',(0.,0.,1.));
#336=DIRECTION('',(1.,0.,0.));
#337=DIRECTION('',(0.,0.,1.));
#338=DIRECTION('',(1.,0.,0.));
#339=DIRECTION('',(0.,0.,1.));
#340=DIRECTION('',(1.,0.,0.));
#341=DIRECTION('',(0.,0.,-1.));
#342=DIRECTION('',(-1.,0.,0.));
#343=DIRECTION('',(0.,0.,1.));
#344=DIRECTION('',(1.,0.,0.));
#345=DIRECTION('',(0.,0.,-1.));
#346=DIRECTION('',(-1.,0.,1.59715871464521E-016));
#347=DIRECTION('',(0.,0.,1.));
#348=DIRECTION('',(1.,0.,0.));
#349=DIRECTION('',(0.,0.,-1.));
#350=DIRECTION('',(-1.,0.,5.85894729273736E-017));
#351=DIRECTION('',(0.,0.,1.));
#352=DIRECTION('',(1.,0.,0.));
#353=DIRECTION('',(0.,0.,1.));
#354=DIRECTION('',(1.,0.,0.));
#355=DIRECTION('',(0.,0.,1.));
#356=DIRECTION('',(1.,0.,0.));
#357=DIRECTION('',(0.,0.,1.));
#358=DIRECTION('',(1.,0.,8.1263149319701E-017));
#359=DIRECTION('',(0.,0.,1.));
#360=DIRECTION('',(1.,0.,0.));
#361=DIRECTION('',(0.,0.,1.));
#362=DIRECTION('',(1.,0.,0.));
#363=DIRECTION('',(0.,0.,1.));
#364=DIRECTION('',(1.,0.,0.));
#365=DIRECTION('',(0.,0.,1.));
#366=DIRECTION('',(1.,0.,-6.20359125109817E-017));
#367=DIRECTION('',(0.,0.,1.));
#368=DIRECTION('',(1.,0.,0.));
#369=DIRECTION('',(0.,0.,1.));
#370=DIRECTION('',(1.,0.,0.));
#371=DIRECTION('',(0.,0.,1.));
#372=DIRECTION('',(1.,0.,0.));
#373=DIRECTION('',(0.,0.,-1.));
#374=DIRECTION('',(-1.,0.,-7.91509358802618E-017));
#375=DIRECTION('',(0.,0.,-1.));
#376=DIRECTION('',(-1.,0.,0.));
#377=DIRECTION('',(0.,0.,1.));
#378=DIRECTION('',(1.,0.,0.));
#379=DIRECTION('',(0.,0.,1.));
#380=DIRECTION('',(1.,0.,0.));
#381=DIRECTION('',(0.,0.,1.));
#382=DIRECTION('',(1.,0.,0.));
#383=DIRECTION('',(0.,0.,1.));
#384=DIRECTION('',(1.,0.,0.));
#385=DIRECTION('',(0.,0.,1.));
#386=DIRECTION('',(1.,0.,0.));
#387=DIRECTION('',(0.,0.,1.));
#388=DIRECTION('',(1.,0.,0.));
#389=DIRECTION('',(0.,0.,1.));
#390=DIRECTION('',(1.,0.,0.));
#391=DIRECTION('',(0.,0.,1.));
#392=DIRECTION('',(1.,0.,0.));
#393=DIRECTION('',(0.,0.,-1.));
#394=DIRECTION('',(-1.,0.,0.));
#395=DIRECTION('',(0.,0.,1.));
#396=DIRECTION('',(1.,0.,0.));
#397=DIRECTION('',(0.,0.,1.));
#398=DIRECTION('',(1.,0.,0.));
#399=DIRECTION('',(0.,0.,1.));
#400=DIRECTION('',(1.,0.,0.));
#401=DIRECTION('',(0.,0.,1.));
#402=DIRECTION('',(1.,0.,0.));
#403=DIRECTION('',(0.,0.,1.));
#404=DIRECTION('',(1.,0.,0.));
#405=DIRECTION('',(0.,0.,1.));
#406=DIRECTION('',(1.,0.,-4.65636659637163E-017));
#407=DIRECTION('',(0.,0.,1.));
#408=DIRECTION('',(1.,0.,0.));
#409=DIRECTION('',(0.,0.,1.));
#410=DIRECTION('',(1.,0.,0.));
#411=DIRECTION('',(0.,0.,1.));
#412=DIRECTION('',(1.,0.,0.));
#413=DIRECTION('',(0.,0.,-1.));
#414=DIRECTION('',(-1.,0.,1.24405088952612E-017));
#415=DIRECTION('',(0.,0.,1.));
#416=DIRECTION('',(1.,0.,0.));
#417=DIRECTION('',(0.,0.,-1.));
#418=DIRECTION('',(-1.,0.,0.));
#419=DIRECTION('',(0.,0.,1.));
#420=DIRECTION('',(1.,0.,0.));
#421=DIRECTION('',(0.,0.,1.));
#422=DIRECTION('',(1.,0.,0.));
#423=DIRECTION('',(0.,0.,-1.));
#424=DIRECTION('',(-1.,0.,-6.80331396095065E-017));
#425=CARTESIAN_POINT('',(0.,0.,0.));
#426=CARTESIAN_POINT('',(0.,2.8421709430404E-014,0.0294083333330381));
#427=CARTESIAN_POINT('',(3.36725416666658,2.8421709430404E-014,0.0294083333330381));
#428=CARTESIAN_POINT('',(0.,2.8421709430404E-014,0.));
#429=CARTESIAN_POINT('',(3.39666249999991,2.8421709430404E-014,0.));
#430=CARTESIAN_POINT('',(0.,2.8421709430404E-014,0.));
#431=CARTESIAN_POINT('',(0.,2.8421709430404E-014,0.117633333333004));
#432=CARTESIAN_POINT('',(3.33784583333321,2.8421709430404E-014,0.117633333333004));
#433=CARTESIAN_POINT('',(0.,2.8421709430404E-014,0.0294083333330381));
#434=CARTESIAN_POINT('',(0.,2.8421709430404E-014,0.176449999999988));
#435=CARTESIAN_POINT('',(3.30843749999988,2.8421709430404E-014,0.176449999999988));
#436=CARTESIAN_POINT('',(0.,2.8421709430404E-014,0.117633333333004));
#437=CARTESIAN_POINT('',(0.,2.8421709430404E-014,0.676391666666916));
#438=CARTESIAN_POINT('',(3.30843749999988,2.8421709430404E-014,0.676391666666916));
#439=CARTESIAN_POINT('',(0.,2.8421709430404E-014,-12.8514416666669));
#440=CARTESIAN_POINT('',(0.,2.8421709430404E-014,0.70580000000001));
#441=CARTESIAN_POINT('',(3.33784583333321,2.8421709430404E-014,0.70580000000001));
#442=CARTESIAN_POINT('',(0.,2.8421709430404E-014,0.676391666666916));
#443=CARTESIAN_POINT('',(0.,2.8421709430404E-014,0.735208333332991));
#444=CARTESIAN_POINT('',(3.33784583333321,2.8421709430404E-014,0.735208333332991));
#445=CARTESIAN_POINT('',(0.,2.8421709430404E-014,-12.8514416666669));
#446=CARTESIAN_POINT('',(0.,2.8421709430404E-014,1.08810833333314));
#447=CARTESIAN_POINT('',(3.51429583333328,2.8421709430404E-014,1.08810833333314));
#448=CARTESIAN_POINT('',(0.,2.8421709430404E-014,0.735208333332991));
#449=CARTESIAN_POINT('',(0.,2.8421709430404E-014,11.028125));
#450=CARTESIAN_POINT('',(3.51429583333328,2.8421709430404E-014,11.028125));
#451=CARTESIAN_POINT('',(0.,2.8421709430404E-014,-12.8514416666669));
#452=CARTESIAN_POINT('',(0.,2.8421709430404E-014,11.5280666666667));
#453=CARTESIAN_POINT('',(3.22021249999997,2.8421709430404E-014,11.5280666666667));
#454=CARTESIAN_POINT('',(0.,2.8421709430404E-014,11.028125));
#455=CARTESIAN_POINT('',(0.,-3.22021249999997,11.5280666666667));
#456=CARTESIAN_POINT('',(0.,0.,0.));
#457=CARTESIAN_POINT('',(0.,2.8421709430404E-014,-12.9984833333335));
#458=CARTESIAN_POINT('',(4.75,2.8421709430404E-014,-12.9984833333335));
#459=CARTESIAN_POINT('',(0.,2.8421709430404E-014,-2.9984833333333));
#460=CARTESIAN_POINT('',(4.75,2.8421709430404E-014,-2.9984833333333));
#461=CARTESIAN_POINT('',(0.,2.8421709430404E-014,-12.8514416666669));
#462=CARTESIAN_POINT('',(0.,2.8421709430404E-014,-12.9984833333335));
#463=CARTESIAN_POINT('',(7.,2.8421709430404E-014,-12.9984833333335));
#464=CARTESIAN_POINT('',(0.,-4.74999999999997,-12.9984833333335));
#465=CARTESIAN_POINT('',(0.,2.8421709430404E-014,-2.9984833333333));
#466=CARTESIAN_POINT('',(7.,2.8421709430404E-014,-2.9984833333333));
#467=CARTESIAN_POINT('',(0.,2.8421709430404E-014,-12.8514416666669));
#468=CARTESIAN_POINT('',(0.,-6.99999999999997,-2.9984833333333));
#469=CARTESIAN_POINT('',(0.,2.8421709430404E-014,0.));
#470=CARTESIAN_POINT('',(5.1611624999999,2.8421709430404E-014,0.));
#471=CARTESIAN_POINT('',(0.,0.,0.));
#472=CARTESIAN_POINT('',(0.,2.8421709430404E-014,-12.8514416666669));
#473=CARTESIAN_POINT('',(5.8815791666666,2.8421709430404E-014,-12.8514416666669));
#474=CARTESIAN_POINT('',(0.,2.8421709430404E-014,-12.8514416666669));
#475=CARTESIAN_POINT('',(0.,2.8421709430404E-014,-12.1014416666669));
#476=CARTESIAN_POINT('',(6.63157916666663,2.8421709430404E-014,-12.1014416666669));
#477=CARTESIAN_POINT('',(0.,2.8421709430404E-014,-12.8514416666669));
#478=CARTESIAN_POINT('',(0.,2.8421709430404E-014,-1.85272500000002));
#479=CARTESIAN_POINT('',(6.63157916666663,2.8421709430404E-014,-1.85272500000002));
#480=CARTESIAN_POINT('',(0.,2.8421709430404E-014,-12.8514416666669));
#481=CARTESIAN_POINT('',(0.,2.8421709430404E-014,-1.32337500000017));
#482=CARTESIAN_POINT('',(5.74932916666657,2.8421709430404E-014,-1.32337500000017));
#483=CARTESIAN_POINT('',(0.,2.8421709430404E-014,-1.85272500000002));
#484=CARTESIAN_POINT('',(0.,2.8421709430404E-014,-1.32337500000017));
#485=CARTESIAN_POINT('',(5.51406250000008,2.8421709430404E-014,-1.32337500000017));
#486=CARTESIAN_POINT('',(0.,-5.74932916666654,-1.32337500000017));
#487=CARTESIAN_POINT('',(0.,2.8421709430404E-014,-0.323491666666712));
#488=CARTESIAN_POINT('',(5.51406250000008,2.8421709430404E-014,-0.323491666666712));
#489=CARTESIAN_POINT('',(0.,2.8421709430404E-014,-12.8514416666669));
#490=CARTESIAN_POINT('',(0.,2.8421709430404E-014,-0.323491666666712));
#491=MECHANICAL_DESIGN_GEOMETRIC_PRESENTATION_REPRESENTATION('',(#26,#27,
#28),#492);
#492=(
GEOMETRIC_REPRESENTATION_CONTEXT(3)
GLOBAL_UNCERTAINTY_ASSIGNED_CONTEXT((#493))
GLOBAL_UNIT_ASSIGNED_CONTEXT((#499,#495,#494))
REPRESENTATION_CONTEXT('02602327','TOP_LEVEL_ASSEMBLY_PART')
);
#493=UNCERTAINTY_MEASURE_WITH_UNIT(LENGTH_MEASURE(2.E-005),#499,
'DISTANCE_ACCURACY_VALUE','Maximum Tolerance applied to model');
#494=(
NAMED_UNIT(*)
SI_UNIT($,.STERADIAN.)
SOLID_ANGLE_UNIT()
);
#495=(
CONVERSION_BASED_UNIT('DEGREE',#497)
NAMED_UNIT(#496)
PLANE_ANGLE_UNIT()
);
#496=DIMENSIONAL_EXPONENTS(0.,0.,0.,0.,0.,0.,0.);
#497=PLANE_ANGLE_MEASURE_WITH_UNIT(PLANE_ANGLE_MEASURE(0.0174532925),#498);
#498=(
NAMED_UNIT(*)
PLANE_ANGLE_UNIT()
SI_UNIT($,.RADIAN.)
);
#499=(
LENGTH_UNIT()
NAMED_UNIT(*)
SI_UNIT(.MILLI.,.METRE.)
);
ENDSEC;
END-ISO-10303-21;
