ISO-10303-21;
HEADER;
/* Generated by software containing ST-Developer
 * from STEP Tools, Inc. (www.steptools.com) 
 */
/* OPTION: using custom schema-name function */

FILE_DESCRIPTION(
/* description */ (''),
/* implementation_level */ '2;1');

FILE_NAME(
/* name */ '05F58322005.stp',
/* time_stamp */ '2019-05-09T10:38:14+05:00',
/* author */ (''),
/* organization */ (''),
/* preprocessor_version */ 'ST-DEVELOPER v16.7',
/* originating_system */ 'SIEMENS PLM Software NX 12.0',
/* authorisation */ '');

FILE_SCHEMA (('AUTOMOTIVE_DESIGN { 1 0 10303 214 3 1 1 1 }'));
ENDSEC;

DATA;
#10=CONSTRUCTIVE_GEOMETRY_REPRESENTATION_RELATIONSHIP(
'supplemental geometry','',#24,#11);
#11=CONSTRUCTIVE_GEOMETRY_REPRESENTATION('supplemental geometry',(#161,
#162,#163),#267);
#12=SHAPE_REPRESENTATION_RELATIONSHIP('None',
'relationship between 05F58322005-None and 05F58322005-None',#24,#13);
#13=ADVANCED_BREP_SHAPE_REPRESENTATION('05F58322005-None',(#30),#267);
#14=SHAPE_DEFINITION_REPRESENTATION(#15,#24);
#15=PRODUCT_DEFINITION_SHAPE('','',#16);
#16=PRODUCT_DEFINITION(' ','',#18,#17);
#17=PRODUCT_DEFINITION_CONTEXT('part definition',#23,'design');
#18=PRODUCT_DEFINITION_FORMATION_WITH_SPECIFIED_SOURCE(' ',' ',#20,
 .NOT_KNOWN.);
#19=PRODUCT_RELATED_PRODUCT_CATEGORY('part','',(#20));
#20=PRODUCT('05F58322005','05F58322005',' ',(#21));
#21=PRODUCT_CONTEXT(' ',#23,'mechanical');
#22=APPLICATION_PROTOCOL_DEFINITION('international standard',
'automotive_design',2010,#23);
#23=APPLICATION_CONTEXT(
'core data for automotive mechanical design processes');
#24=SHAPE_REPRESENTATION('05F58322005-None',(#160),#267);
#25=SURFACE_STYLE_USAGE(.BOTH.,#26);
#26=SURFACE_SIDE_STYLE('',(#27));
#27=SURFACE_STYLE_FILL_AREA(#28);
#28=FILL_AREA_STYLE('',(#29));
#29=FILL_AREA_STYLE_COLOUR('',#156);
#30=MANIFOLD_SOLID_BREP('NOCUT',#31);
#31=CLOSED_SHELL('',(#37,#38,#39,#40,#41,#42,#43,#44,#45,#46));
#32=CONICAL_SURFACE('',#172,5.,59.9999999999995);
#33=PLANE('',#168);
#34=PLANE('',#176);
#35=PLANE('',#180);
#36=PLANE('',#183);
#37=ADVANCED_FACE('',(#52,#53),#47,.T.);
#38=ADVANCED_FACE('',(#54,#55),#33,.F.);
#39=ADVANCED_FACE('',(#56,#57),#48,.F.);
#40=ADVANCED_FACE('',(#58,#59),#32,.F.);
#41=ADVANCED_FACE('',(#60,#61),#49,.F.);
#42=ADVANCED_FACE('',(#62,#63),#34,.F.);
#43=ADVANCED_FACE('',(#64,#65),#50,.T.);
#44=ADVANCED_FACE('',(#66,#67),#35,.F.);
#45=ADVANCED_FACE('',(#68,#69),#51,.T.);
#46=ADVANCED_FACE('',(#70,#71),#36,.F.);
#47=CYLINDRICAL_SURFACE('',#166,9.99999999999995);
#48=CYLINDRICAL_SURFACE('',#170,5.);
#49=CYLINDRICAL_SURFACE('',#174,2.5);
#50=CYLINDRICAL_SURFACE('',#178,12.4999999999999);
#51=CYLINDRICAL_SURFACE('',#182,9.79999999999999);
#52=FACE_BOUND('',#72,.T.);
#53=FACE_BOUND('',#73,.T.);
#54=FACE_BOUND('',#74,.T.);
#55=FACE_BOUND('',#75,.T.);
#56=FACE_BOUND('',#76,.T.);
#57=FACE_BOUND('',#77,.T.);
#58=FACE_BOUND('',#78,.T.);
#59=FACE_BOUND('',#79,.T.);
#60=FACE_BOUND('',#80,.T.);
#61=FACE_BOUND('',#81,.T.);
#62=FACE_BOUND('',#82,.T.);
#63=FACE_BOUND('',#83,.T.);
#64=FACE_BOUND('',#84,.T.);
#65=FACE_BOUND('',#85,.T.);
#66=FACE_BOUND('',#86,.T.);
#67=FACE_BOUND('',#87,.T.);
#68=FACE_BOUND('',#88,.T.);
#69=FACE_BOUND('',#89,.T.);
#70=FACE_BOUND('',#90,.T.);
#71=FACE_BOUND('',#91,.T.);
#72=EDGE_LOOP('',(#92));
#73=EDGE_LOOP('',(#93));
#74=EDGE_LOOP('',(#94));
#75=EDGE_LOOP('',(#95));
#76=EDGE_LOOP('',(#96));
#77=EDGE_LOOP('',(#97));
#78=EDGE_LOOP('',(#98));
#79=EDGE_LOOP('',(#99));
#80=EDGE_LOOP('',(#100));
#81=EDGE_LOOP('',(#101));
#82=EDGE_LOOP('',(#102));
#83=EDGE_LOOP('',(#103));
#84=EDGE_LOOP('',(#104));
#85=EDGE_LOOP('',(#105));
#86=EDGE_LOOP('',(#106));
#87=EDGE_LOOP('',(#107));
#88=EDGE_LOOP('',(#108));
#89=EDGE_LOOP('',(#109));
#90=EDGE_LOOP('',(#110));
#91=EDGE_LOOP('',(#111));
#92=ORIENTED_EDGE('',*,*,#122,.F.);
#93=ORIENTED_EDGE('',*,*,#123,.T.);
#94=ORIENTED_EDGE('',*,*,#124,.F.);
#95=ORIENTED_EDGE('',*,*,#122,.T.);
#96=ORIENTED_EDGE('',*,*,#125,.F.);
#97=ORIENTED_EDGE('',*,*,#124,.T.);
#98=ORIENTED_EDGE('',*,*,#126,.F.);
#99=ORIENTED_EDGE('',*,*,#125,.T.);
#100=ORIENTED_EDGE('',*,*,#127,.F.);
#101=ORIENTED_EDGE('',*,*,#126,.T.);
#102=ORIENTED_EDGE('',*,*,#128,.F.);
#103=ORIENTED_EDGE('',*,*,#127,.T.);
#104=ORIENTED_EDGE('',*,*,#129,.F.);
#105=ORIENTED_EDGE('',*,*,#128,.T.);
#106=ORIENTED_EDGE('',*,*,#130,.F.);
#107=ORIENTED_EDGE('',*,*,#129,.T.);
#108=ORIENTED_EDGE('',*,*,#131,.F.);
#109=ORIENTED_EDGE('',*,*,#130,.T.);
#110=ORIENTED_EDGE('',*,*,#123,.F.);
#111=ORIENTED_EDGE('',*,*,#131,.T.);
#112=VERTEX_POINT('',#237);
#113=VERTEX_POINT('',#239);
#114=VERTEX_POINT('',#242);
#115=VERTEX_POINT('',#245);
#116=VERTEX_POINT('',#248);
#117=VERTEX_POINT('',#251);
#118=VERTEX_POINT('',#254);
#119=VERTEX_POINT('',#257);
#120=VERTEX_POINT('',#260);
#121=VERTEX_POINT('',#263);
#122=EDGE_CURVE('',#112,#112,#132,.T.);
#123=EDGE_CURVE('',#113,#113,#133,.T.);
#124=EDGE_CURVE('',#114,#114,#134,.T.);
#125=EDGE_CURVE('',#115,#115,#135,.T.);
#126=EDGE_CURVE('',#116,#116,#136,.T.);
#127=EDGE_CURVE('',#117,#117,#137,.T.);
#128=EDGE_CURVE('',#118,#118,#138,.T.);
#129=EDGE_CURVE('',#119,#119,#139,.T.);
#130=EDGE_CURVE('',#120,#120,#140,.T.);
#131=EDGE_CURVE('',#121,#121,#141,.T.);
#132=CIRCLE('',#164,9.99999999999995);
#133=CIRCLE('',#165,9.99999999999995);
#134=CIRCLE('',#167,5.);
#135=CIRCLE('',#169,5.);
#136=CIRCLE('',#171,2.5);
#137=CIRCLE('',#173,2.5);
#138=CIRCLE('',#175,12.4999999999999);
#139=CIRCLE('',#177,12.4999999999999);
#140=CIRCLE('',#179,9.79999999999999);
#141=CIRCLE('',#181,9.79999999999999);
#142=PRESENTATION_LAYER_ASSIGNMENT('1','Layer 1',(#161,#162,#163));
#143=PRESENTATION_LAYER_ASSIGNMENT('4','Layer 4',(#30));
#144=STYLED_ITEM('',(#148),#161);
#145=STYLED_ITEM('',(#149),#162);
#146=STYLED_ITEM('',(#150),#163);
#147=STYLED_ITEM('',(#151),#30);
#148=PRESENTATION_STYLE_ASSIGNMENT((#152));
#149=PRESENTATION_STYLE_ASSIGNMENT((#153));
#150=PRESENTATION_STYLE_ASSIGNMENT((#154));
#151=PRESENTATION_STYLE_ASSIGNMENT((#25));
#152=CURVE_STYLE('',#157,POSITIVE_LENGTH_MEASURE(0.18),#155);
#153=CURVE_STYLE('',#158,POSITIVE_LENGTH_MEASURE(0.18),#155);
#154=CURVE_STYLE('',#159,POSITIVE_LENGTH_MEASURE(0.18),#155);
#155=COLOUR_RGB('Strong Stone',0.576470588235294,0.54508278019379,0.392156862745098);
#156=COLOUR_RGB('Iron Gray',0.298023956664378,0.298023956664378,0.298023956664378);
#157=DRAUGHTING_PRE_DEFINED_CURVE_FONT('continuous');
#158=DRAUGHTING_PRE_DEFINED_CURVE_FONT('continuous');
#159=DRAUGHTING_PRE_DEFINED_CURVE_FONT('continuous');
#160=AXIS2_PLACEMENT_3D('',#232,#184,#185);
#161=AXIS2_PLACEMENT_3D('MCS',#233,#186,#187);
#162=AXIS2_PLACEMENT_3D('PCS',#234,#188,#189);
#163=AXIS2_PLACEMENT_3D('CSW',#235,#190,#191);
#164=AXIS2_PLACEMENT_3D('',#236,#192,#193);
#165=AXIS2_PLACEMENT_3D('',#238,#194,#195);
#166=AXIS2_PLACEMENT_3D('',#240,#196,#197);
#167=AXIS2_PLACEMENT_3D('',#241,#198,#199);
#168=AXIS2_PLACEMENT_3D('',#243,#200,#201);
#169=AXIS2_PLACEMENT_3D('',#244,#202,#203);
#170=AXIS2_PLACEMENT_3D('',#246,#204,#205);
#171=AXIS2_PLACEMENT_3D('',#247,#206,#207);
#172=AXIS2_PLACEMENT_3D('',#249,#208,#209);
#173=AXIS2_PLACEMENT_3D('',#250,#210,#211);
#174=AXIS2_PLACEMENT_3D('',#252,#212,#213);
#175=AXIS2_PLACEMENT_3D('',#253,#214,#215);
#176=AXIS2_PLACEMENT_3D('',#255,#216,#217);
#177=AXIS2_PLACEMENT_3D('',#256,#218,#219);
#178=AXIS2_PLACEMENT_3D('',#258,#220,#221);
#179=AXIS2_PLACEMENT_3D('',#259,#222,#223);
#180=AXIS2_PLACEMENT_3D('',#261,#224,#225);
#181=AXIS2_PLACEMENT_3D('',#262,#226,#227);
#182=AXIS2_PLACEMENT_3D('',#264,#228,#229);
#183=AXIS2_PLACEMENT_3D('',#265,#230,#231);
#184=DIRECTION('',(0.,0.,1.));
#185=DIRECTION('',(1.,0.,0.));
#186=DIRECTION('',(0.,0.,1.));
#187=DIRECTION('',(1.,0.,0.));
#188=DIRECTION('',(0.,0.,1.));
#189=DIRECTION('',(1.,0.,0.));
#190=DIRECTION('',(0.,0.,1.));
#191=DIRECTION('',(1.,0.,0.));
#192=DIRECTION('',(0.,0.,1.));
#193=DIRECTION('',(1.,0.,0.));
#194=DIRECTION('',(0.,0.,1.));
#195=DIRECTION('',(1.,0.,0.));
#196=DIRECTION('',(0.,0.,1.));
#197=DIRECTION('',(-1.,0.,0.));
#198=DIRECTION('',(0.,0.,1.));
#199=DIRECTION('',(1.,0.,0.));
#200=DIRECTION('',(0.,0.,-1.));
#201=DIRECTION('',(1.,0.,0.));
#202=DIRECTION('',(0.,0.,1.));
#203=DIRECTION('',(1.,0.,0.));
#204=DIRECTION('',(0.,0.,1.));
#205=DIRECTION('',(-1.,0.,0.));
#206=DIRECTION('',(0.,0.,1.));
#207=DIRECTION('',(1.,0.,0.));
#208=DIRECTION('',(0.,0.,1.));
#209=DIRECTION('',(-1.,0.,-5.39276498387829E-17));
#210=DIRECTION('',(0.,0.,1.));
#211=DIRECTION('',(1.,0.,0.));
#212=DIRECTION('',(0.,0.,1.));
#213=DIRECTION('',(-1.,0.,0.));
#214=DIRECTION('',(0.,0.,1.));
#215=DIRECTION('',(1.,0.,0.));
#216=DIRECTION('',(0.,0.,1.));
#217=DIRECTION('',(-1.,0.,0.));
#218=DIRECTION('',(0.,0.,1.));
#219=DIRECTION('',(1.,0.,0.));
#220=DIRECTION('',(0.,0.,1.));
#221=DIRECTION('',(-1.,0.,0.));
#222=DIRECTION('',(0.,0.,1.));
#223=DIRECTION('',(1.,0.,0.));
#224=DIRECTION('',(0.,0.,-1.));
#225=DIRECTION('',(1.,0.,0.));
#226=DIRECTION('',(0.,0.,1.));
#227=DIRECTION('',(1.,0.,0.));
#228=DIRECTION('',(0.,0.,1.));
#229=DIRECTION('',(-1.,0.,0.));
#230=DIRECTION('',(0.,0.,1.));
#231=DIRECTION('',(-1.,0.,0.));
#232=CARTESIAN_POINT('',(0.,0.,0.));
#233=CARTESIAN_POINT('',(0.,0.,0.));
#234=CARTESIAN_POINT('',(0.,0.,50.));
#235=CARTESIAN_POINT('',(0.,0.,-4.));
#236=CARTESIAN_POINT('',(0.,0.,50.));
#237=CARTESIAN_POINT('',(9.99999999999995,0.,50.));
#238=CARTESIAN_POINT('',(0.,0.,3.49999999999998));
#239=CARTESIAN_POINT('',(9.99999999999995,0.,3.49999999999998));
#240=CARTESIAN_POINT('',(0.,0.,-4.1582575126235));
#241=CARTESIAN_POINT('',(0.,0.,50.));
#242=CARTESIAN_POINT('',(5.,0.,50.));
#243=CARTESIAN_POINT('',(0.,9.99999999999995,50.));
#244=CARTESIAN_POINT('',(0.,0.,25.443376));
#245=CARTESIAN_POINT('',(5.,0.,25.443376));
#246=CARTESIAN_POINT('',(0.,0.,-4.1582575126235));
#247=CARTESIAN_POINT('',(0.,0.,24.0000003270259));
#248=CARTESIAN_POINT('',(2.5,0.,24.0000003270259));
#249=CARTESIAN_POINT('',(0.,0.,25.443376));
#250=CARTESIAN_POINT('',(0.,0.,-4.));
#251=CARTESIAN_POINT('',(2.5,0.,-4.));
#252=CARTESIAN_POINT('',(0.,0.,-4.1582575126235));
#253=CARTESIAN_POINT('',(0.,0.,-4.));
#254=CARTESIAN_POINT('',(12.4999999999999,0.,-4.));
#255=CARTESIAN_POINT('',(0.,2.5,-4.));
#256=CARTESIAN_POINT('',(0.,0.,0.));
#257=CARTESIAN_POINT('',(12.4999999999999,0.,0.));
#258=CARTESIAN_POINT('',(0.,0.,-4.1582575126235));
#259=CARTESIAN_POINT('',(0.,0.,0.));
#260=CARTESIAN_POINT('',(9.79999999999999,0.,0.));
#261=CARTESIAN_POINT('',(0.,12.4999999999999,0.));
#262=CARTESIAN_POINT('',(0.,0.,3.50000000000001));
#263=CARTESIAN_POINT('',(9.79999999999999,0.,3.50000000000001));
#264=CARTESIAN_POINT('',(0.,0.,-4.1582575126235));
#265=CARTESIAN_POINT('',(0.,9.79999999999999,3.5));
#266=MECHANICAL_DESIGN_GEOMETRIC_PRESENTATION_REPRESENTATION('',(#144,#145,
#146,#147),#267);
#267=(
GEOMETRIC_REPRESENTATION_CONTEXT(3)
GLOBAL_UNCERTAINTY_ASSIGNED_CONTEXT((#268))
GLOBAL_UNIT_ASSIGNED_CONTEXT((#274,#270,#269))
REPRESENTATION_CONTEXT('05F58322005','TOP_LEVEL_ASSEMBLY_PART')
);
#268=UNCERTAINTY_MEASURE_WITH_UNIT(LENGTH_MEASURE(2.E-5),#274,
'DISTANCE_ACCURACY_VALUE','Maximum Tolerance applied to model');
#269=(
NAMED_UNIT(*)
SI_UNIT($,.STERADIAN.)
SOLID_ANGLE_UNIT()
);
#270=(
CONVERSION_BASED_UNIT('DEGREE',#272)
NAMED_UNIT(#271)
PLANE_ANGLE_UNIT()
);
#271=DIMENSIONAL_EXPONENTS(0.,0.,0.,0.,0.,0.,0.);
#272=PLANE_ANGLE_MEASURE_WITH_UNIT(PLANE_ANGLE_MEASURE(0.0174532925),#273);
#273=(
NAMED_UNIT(*)
PLANE_ANGLE_UNIT()
SI_UNIT($,.RADIAN.)
);
#274=(
LENGTH_UNIT()
NAMED_UNIT(*)
SI_UNIT(.MILLI.,.METRE.)
);
ENDSEC;
END-ISO-10303-21;
