ISO-10303-21;
HEADER;
/* Generated by software containing ST-Developer
 * from STEP Tools, Inc. (www.steptools.com) 
 */
/* OPTION: using custom schema-name function */

FILE_DESCRIPTION(
/* description */ (''),
/* implementation_level */ '2;1');

FILE_NAME(
/* name */ '05F58321210.stp',
/* time_stamp */ '2019-05-09T10:38:15+05:00',
/* author */ (''),
/* organization */ (''),
/* preprocessor_version */ 'ST-DEVELOPER v16.7',
/* originating_system */ 'SIEMENS PLM Software NX 12.0',
/* authorisation */ '');

FILE_SCHEMA (('AUTOMOTIVE_DESIGN { 1 0 10303 214 3 1 1 1 }'));
ENDSEC;

DATA;
#10=CONSTRUCTIVE_GEOMETRY_REPRESENTATION_RELATIONSHIP(
'supplemental geometry','',#24,#11);
#11=CONSTRUCTIVE_GEOMETRY_REPRESENTATION('supplemental geometry',(#172,
#173,#174),#287);
#12=SHAPE_REPRESENTATION_RELATIONSHIP('None',
'relationship between 05F58321210-None and 05F58321210-None',#24,#13);
#13=ADVANCED_BREP_SHAPE_REPRESENTATION('05F58321210-None',(#30),#287);
#14=SHAPE_DEFINITION_REPRESENTATION(#15,#24);
#15=PRODUCT_DEFINITION_SHAPE('','',#16);
#16=PRODUCT_DEFINITION(' ','',#18,#17);
#17=PRODUCT_DEFINITION_CONTEXT('part definition',#23,'design');
#18=PRODUCT_DEFINITION_FORMATION_WITH_SPECIFIED_SOURCE(' ',' ',#20,
 .NOT_KNOWN.);
#19=PRODUCT_RELATED_PRODUCT_CATEGORY('part','',(#20));
#20=PRODUCT('05F58321210','05F58321210',' ',(#21));
#21=PRODUCT_CONTEXT(' ',#23,'mechanical');
#22=APPLICATION_PROTOCOL_DEFINITION('international standard',
'automotive_design',2010,#23);
#23=APPLICATION_CONTEXT(
'core data for automotive mechanical design processes');
#24=SHAPE_REPRESENTATION('05F58321210-None',(#171),#287);
#25=SURFACE_STYLE_USAGE(.BOTH.,#26);
#26=SURFACE_SIDE_STYLE('',(#27));
#27=SURFACE_STYLE_FILL_AREA(#28);
#28=FILL_AREA_STYLE('',(#29));
#29=FILL_AREA_STYLE_COLOUR('',#167);
#30=MANIFOLD_SOLID_BREP('NOCUT',#31);
#31=CLOSED_SHELL('',(#39,#40,#41,#42,#43,#44,#45,#46,#47,#48,#49));
#32=CYLINDRICAL_SURFACE('',#181,6.00000000000002);
#33=CYLINDRICAL_SURFACE('',#185,5.80000000000001);
#34=CYLINDRICAL_SURFACE('',#189,7.99999999999999);
#35=CYLINDRICAL_SURFACE('',#193,5.00000000000001);
#36=CYLINDRICAL_SURFACE('',#196,3.00000000000002);
#37=CONICAL_SURFACE('',#179,5.50000000000002,45.0000000000004);
#38=CONICAL_SURFACE('',#195,5.00000000000002,59.9999999999991);
#39=ADVANCED_FACE('',(#54,#55),#50,.T.);
#40=ADVANCED_FACE('',(#56,#57),#37,.T.);
#41=ADVANCED_FACE('',(#58,#59),#32,.T.);
#42=ADVANCED_FACE('',(#60,#61),#51,.T.);
#43=ADVANCED_FACE('',(#62,#63),#33,.T.);
#44=ADVANCED_FACE('',(#64,#65),#52,.T.);
#45=ADVANCED_FACE('',(#66,#67),#34,.T.);
#46=ADVANCED_FACE('',(#68,#69),#53,.T.);
#47=ADVANCED_FACE('',(#70,#71),#35,.F.);
#48=ADVANCED_FACE('',(#72,#73),#38,.F.);
#49=ADVANCED_FACE('',(#74,#75),#36,.F.);
#50=PLANE('',#177);
#51=PLANE('',#183);
#52=PLANE('',#187);
#53=PLANE('',#191);
#54=FACE_BOUND('',#76,.T.);
#55=FACE_BOUND('',#77,.T.);
#56=FACE_BOUND('',#78,.T.);
#57=FACE_BOUND('',#79,.T.);
#58=FACE_BOUND('',#80,.T.);
#59=FACE_BOUND('',#81,.T.);
#60=FACE_BOUND('',#82,.T.);
#61=FACE_BOUND('',#83,.T.);
#62=FACE_BOUND('',#84,.T.);
#63=FACE_BOUND('',#85,.T.);
#64=FACE_BOUND('',#86,.T.);
#65=FACE_BOUND('',#87,.T.);
#66=FACE_BOUND('',#88,.T.);
#67=FACE_BOUND('',#89,.T.);
#68=FACE_BOUND('',#90,.T.);
#69=FACE_BOUND('',#91,.T.);
#70=FACE_BOUND('',#92,.T.);
#71=FACE_BOUND('',#93,.T.);
#72=FACE_BOUND('',#94,.T.);
#73=FACE_BOUND('',#95,.T.);
#74=FACE_BOUND('',#96,.T.);
#75=FACE_BOUND('',#97,.T.);
#76=EDGE_LOOP('',(#98));
#77=EDGE_LOOP('',(#99));
#78=EDGE_LOOP('',(#100));
#79=EDGE_LOOP('',(#101));
#80=EDGE_LOOP('',(#102));
#81=EDGE_LOOP('',(#103));
#82=EDGE_LOOP('',(#104));
#83=EDGE_LOOP('',(#105));
#84=EDGE_LOOP('',(#106));
#85=EDGE_LOOP('',(#107));
#86=EDGE_LOOP('',(#108));
#87=EDGE_LOOP('',(#109));
#88=EDGE_LOOP('',(#110));
#89=EDGE_LOOP('',(#111));
#90=EDGE_LOOP('',(#112));
#91=EDGE_LOOP('',(#113));
#92=EDGE_LOOP('',(#114));
#93=EDGE_LOOP('',(#115));
#94=EDGE_LOOP('',(#116));
#95=EDGE_LOOP('',(#117));
#96=EDGE_LOOP('',(#118));
#97=EDGE_LOOP('',(#119));
#98=ORIENTED_EDGE('',*,*,#131,.T.);
#99=ORIENTED_EDGE('',*,*,#132,.F.);
#100=ORIENTED_EDGE('',*,*,#133,.T.);
#101=ORIENTED_EDGE('',*,*,#131,.F.);
#102=ORIENTED_EDGE('',*,*,#134,.T.);
#103=ORIENTED_EDGE('',*,*,#133,.F.);
#104=ORIENTED_EDGE('',*,*,#135,.T.);
#105=ORIENTED_EDGE('',*,*,#134,.F.);
#106=ORIENTED_EDGE('',*,*,#136,.T.);
#107=ORIENTED_EDGE('',*,*,#135,.F.);
#108=ORIENTED_EDGE('',*,*,#137,.T.);
#109=ORIENTED_EDGE('',*,*,#136,.F.);
#110=ORIENTED_EDGE('',*,*,#138,.T.);
#111=ORIENTED_EDGE('',*,*,#137,.F.);
#112=ORIENTED_EDGE('',*,*,#139,.T.);
#113=ORIENTED_EDGE('',*,*,#138,.F.);
#114=ORIENTED_EDGE('',*,*,#140,.T.);
#115=ORIENTED_EDGE('',*,*,#139,.F.);
#116=ORIENTED_EDGE('',*,*,#141,.T.);
#117=ORIENTED_EDGE('',*,*,#140,.F.);
#118=ORIENTED_EDGE('',*,*,#132,.T.);
#119=ORIENTED_EDGE('',*,*,#141,.F.);
#120=VERTEX_POINT('',#254);
#121=VERTEX_POINT('',#256);
#122=VERTEX_POINT('',#259);
#123=VERTEX_POINT('',#262);
#124=VERTEX_POINT('',#265);
#125=VERTEX_POINT('',#268);
#126=VERTEX_POINT('',#271);
#127=VERTEX_POINT('',#274);
#128=VERTEX_POINT('',#277);
#129=VERTEX_POINT('',#280);
#130=VERTEX_POINT('',#283);
#131=EDGE_CURVE('',#120,#120,#142,.T.);
#132=EDGE_CURVE('',#121,#121,#143,.T.);
#133=EDGE_CURVE('',#122,#122,#144,.T.);
#134=EDGE_CURVE('',#123,#123,#145,.T.);
#135=EDGE_CURVE('',#124,#124,#146,.T.);
#136=EDGE_CURVE('',#125,#125,#147,.T.);
#137=EDGE_CURVE('',#126,#126,#148,.T.);
#138=EDGE_CURVE('',#127,#127,#149,.T.);
#139=EDGE_CURVE('',#128,#128,#150,.T.);
#140=EDGE_CURVE('',#129,#129,#151,.T.);
#141=EDGE_CURVE('',#130,#130,#152,.T.);
#142=CIRCLE('',#175,5.50000000000002);
#143=CIRCLE('',#176,3.00000000000002);
#144=CIRCLE('',#178,6.00000000000003);
#145=CIRCLE('',#180,6.00000000000001);
#146=CIRCLE('',#182,5.80000000000002);
#147=CIRCLE('',#184,5.79999999999999);
#148=CIRCLE('',#186,7.99999999999997);
#149=CIRCLE('',#188,8.);
#150=CIRCLE('',#190,5.);
#151=CIRCLE('',#192,5.00000000000002);
#152=CIRCLE('',#194,3.00000000000002);
#153=PRESENTATION_LAYER_ASSIGNMENT('1','Layer 1',(#172,#173,#174));
#154=PRESENTATION_LAYER_ASSIGNMENT('4','Layer 4',(#30));
#155=STYLED_ITEM('',(#159),#172);
#156=STYLED_ITEM('',(#160),#173);
#157=STYLED_ITEM('',(#161),#174);
#158=STYLED_ITEM('',(#162),#30);
#159=PRESENTATION_STYLE_ASSIGNMENT((#163));
#160=PRESENTATION_STYLE_ASSIGNMENT((#164));
#161=PRESENTATION_STYLE_ASSIGNMENT((#165));
#162=PRESENTATION_STYLE_ASSIGNMENT((#25));
#163=CURVE_STYLE('',#168,POSITIVE_LENGTH_MEASURE(0.18),#166);
#164=CURVE_STYLE('',#169,POSITIVE_LENGTH_MEASURE(0.18),#166);
#165=CURVE_STYLE('',#170,POSITIVE_LENGTH_MEASURE(0.18),#166);
#166=COLOUR_RGB('Strong Stone',0.576470588235294,0.54508278019379,0.392156862745098);
#167=COLOUR_RGB('Iron Gray',0.298023956664378,0.298023956664378,0.298023956664378);
#168=DRAUGHTING_PRE_DEFINED_CURVE_FONT('continuous');
#169=DRAUGHTING_PRE_DEFINED_CURVE_FONT('continuous');
#170=DRAUGHTING_PRE_DEFINED_CURVE_FONT('continuous');
#171=AXIS2_PLACEMENT_3D('',#249,#197,#198);
#172=AXIS2_PLACEMENT_3D('CSW',#250,#199,#200);
#173=AXIS2_PLACEMENT_3D('MCS',#251,#201,#202);
#174=AXIS2_PLACEMENT_3D('PCS',#252,#203,#204);
#175=AXIS2_PLACEMENT_3D('',#253,#205,#206);
#176=AXIS2_PLACEMENT_3D('',#255,#207,#208);
#177=AXIS2_PLACEMENT_3D('',#257,#209,#210);
#178=AXIS2_PLACEMENT_3D('',#258,#211,#212);
#179=AXIS2_PLACEMENT_3D('',#260,#213,#214);
#180=AXIS2_PLACEMENT_3D('',#261,#215,#216);
#181=AXIS2_PLACEMENT_3D('',#263,#217,#218);
#182=AXIS2_PLACEMENT_3D('',#264,#219,#220);
#183=AXIS2_PLACEMENT_3D('',#266,#221,#222);
#184=AXIS2_PLACEMENT_3D('',#267,#223,#224);
#185=AXIS2_PLACEMENT_3D('',#269,#225,#226);
#186=AXIS2_PLACEMENT_3D('',#270,#227,#228);
#187=AXIS2_PLACEMENT_3D('',#272,#229,#230);
#188=AXIS2_PLACEMENT_3D('',#273,#231,#232);
#189=AXIS2_PLACEMENT_3D('',#275,#233,#234);
#190=AXIS2_PLACEMENT_3D('',#276,#235,#236);
#191=AXIS2_PLACEMENT_3D('',#278,#237,#238);
#192=AXIS2_PLACEMENT_3D('',#279,#239,#240);
#193=AXIS2_PLACEMENT_3D('',#281,#241,#242);
#194=AXIS2_PLACEMENT_3D('',#282,#243,#244);
#195=AXIS2_PLACEMENT_3D('',#284,#245,#246);
#196=AXIS2_PLACEMENT_3D('',#285,#247,#248);
#197=DIRECTION('',(0.,0.,1.));
#198=DIRECTION('',(1.,0.,0.));
#199=DIRECTION('',(0.,0.,1.));
#200=DIRECTION('',(1.,0.,0.));
#201=DIRECTION('',(0.,0.,1.));
#202=DIRECTION('',(1.,0.,0.));
#203=DIRECTION('',(0.,0.,1.));
#204=DIRECTION('',(1.,0.,0.));
#205=DIRECTION('',(0.,-4.23048971089923E-16,1.));
#206=DIRECTION('',(0.,-1.,0.));
#207=DIRECTION('',(0.,-4.23048971089923E-16,1.));
#208=DIRECTION('',(0.,-1.,0.));
#209=DIRECTION('',(0.,-4.23048971089923E-16,1.));
#210=DIRECTION('',(0.,1.,4.23272528138341E-16));
#211=DIRECTION('',(0.,-4.23048971089923E-16,1.));
#212=DIRECTION('',(0.,-1.,0.));
#213=DIRECTION('',(0.,4.23048971089923E-16,-1.));
#214=DIRECTION('',(0.,-1.,-4.07155385709121E-16));
#215=DIRECTION('',(0.,-4.23048971089923E-16,1.));
#216=DIRECTION('',(0.,-1.,-4.33680868994201E-16));
#217=DIRECTION('',(0.,-4.23048971089923E-16,1.));
#218=DIRECTION('',(0.,1.,4.336808689942E-16));
#219=DIRECTION('',(0.,-4.23048971089923E-16,1.));
#220=DIRECTION('',(0.,-1.,-4.48635381718138E-16));
#221=DIRECTION('',(0.,4.23048971089923E-16,-1.));
#222=DIRECTION('',(0.,-1.,-4.22838847269347E-16));
#223=DIRECTION('',(0.,-4.23048971089923E-16,1.));
#224=DIRECTION('',(0.,-1.,-4.23048971089923E-16));
#225=DIRECTION('',(0.,-4.23048971089923E-16,1.));
#226=DIRECTION('',(0.,1.,4.48635381718139E-16));
#227=DIRECTION('',(0.,-4.23048971089923E-16,1.));
#228=DIRECTION('',(0.,-1.,-4.23048971089923E-16));
#229=DIRECTION('',(0.,-4.23048971089923E-16,1.));
#230=DIRECTION('',(0.,1.,4.23048971089923E-16));
#231=DIRECTION('',(0.,-4.23048971089923E-16,1.));
#232=DIRECTION('',(0.,-1.,-4.33680868994202E-16));
#233=DIRECTION('',(0.,-4.23048971089923E-16,1.));
#234=DIRECTION('',(0.,1.,4.33680868994202E-16));
#235=DIRECTION('',(0.,-4.23048971089923E-16,1.));
#236=DIRECTION('',(0.,-1.,-3.46944695195361E-16));
#237=DIRECTION('',(0.,4.23048971089923E-16,-1.));
#238=DIRECTION('',(0.,-1.,-4.23272528138341E-16));
#239=DIRECTION('',(0.,-4.23048971089923E-16,1.));
#240=DIRECTION('',(0.,-1.,0.));
#241=DIRECTION('',(0.,-4.23048971089923E-16,1.));
#242=DIRECTION('',(0.,1.,3.46944695195361E-16));
#243=DIRECTION('',(0.,-4.23048971089923E-16,1.));
#244=DIRECTION('',(0.,-1.,0.));
#245=DIRECTION('',(0.,4.23048971089923E-16,-1.));
#246=DIRECTION('',(0.,-1.,-4.3142119871027E-16));
#247=DIRECTION('',(0.,-4.23048971089923E-16,1.));
#248=DIRECTION('',(0.,1.,2.89120579329466E-16));
#249=CARTESIAN_POINT('',(0.,0.,0.));
#250=CARTESIAN_POINT('',(0.,1.73472347597681E-15,-4.));
#251=CARTESIAN_POINT('',(0.,0.,0.));
#252=CARTESIAN_POINT('',(0.,-1.73472347597681E-14,40.));
#253=CARTESIAN_POINT('',(0.,-1.73472347597681E-14,40.));
#254=CARTESIAN_POINT('',(0.,-5.50000000000004,40.));
#255=CARTESIAN_POINT('',(0.,-1.73472347597681E-14,40.));
#256=CARTESIAN_POINT('',(0.,-3.00000000000004,40.));
#257=CARTESIAN_POINT('',(0.,3.,40.));
#258=CARTESIAN_POINT('',(0.,-1.73472347597681E-14,39.5));
#259=CARTESIAN_POINT('',(0.,-6.00000000000005,39.5));
#260=CARTESIAN_POINT('',(0.,-1.73472347597681E-14,40.));
#261=CARTESIAN_POINT('',(0.,-1.73472347597681E-15,3.));
#262=CARTESIAN_POINT('',(0.,-6.00000000000001,2.99999999999999));
#263=CARTESIAN_POINT('',(0.,1.73472347597681E-15,-5.31815293017084));
#264=CARTESIAN_POINT('',(0.,-1.73472347597681E-15,3.));
#265=CARTESIAN_POINT('',(0.,-5.80000000000002,3.));
#266=CARTESIAN_POINT('',(0.,6.00000000000001,3.));
#267=CARTESIAN_POINT('',(0.,0.,0.));
#268=CARTESIAN_POINT('',(0.,-5.79999999999999,-2.45368403232155E-15));
#269=CARTESIAN_POINT('',(0.,1.73472347597681E-15,-5.31815293017084));
#270=CARTESIAN_POINT('',(0.,0.,0.));
#271=CARTESIAN_POINT('',(0.,-7.99999999999997,-3.38439176871937E-15));
#272=CARTESIAN_POINT('',(0.,5.79999999999999,3.46944695195361E-15));
#273=CARTESIAN_POINT('',(0.,1.73472347597681E-15,-4.));
#274=CARTESIAN_POINT('',(0.,-8.,-4.));
#275=CARTESIAN_POINT('',(0.,1.73472347597681E-15,-5.31815293017084));
#276=CARTESIAN_POINT('',(0.,1.73472347597681E-15,-4.));
#277=CARTESIAN_POINT('',(0.,-5.,-4.));
#278=CARTESIAN_POINT('',(0.,7.99999999999997,-4.));
#279=CARTESIAN_POINT('',(0.,-1.56125112837913E-14,36.));
#280=CARTESIAN_POINT('',(0.,-5.00000000000003,36.));
#281=CARTESIAN_POINT('',(0.,1.73472347597681E-15,-5.31815293017084));
#282=CARTESIAN_POINT('',(0.,-1.56125112837913E-14,37.1547005383793));
#283=CARTESIAN_POINT('',(0.,-3.00000000000003,37.1547005383793));
#284=CARTESIAN_POINT('',(0.,-1.56125112837913E-14,36.));
#285=CARTESIAN_POINT('',(0.,1.73472347597681E-15,-5.31815293017084));
#286=MECHANICAL_DESIGN_GEOMETRIC_PRESENTATION_REPRESENTATION('',(#155,#156,
#157,#158),#287);
#287=(
GEOMETRIC_REPRESENTATION_CONTEXT(3)
GLOBAL_UNCERTAINTY_ASSIGNED_CONTEXT((#288))
GLOBAL_UNIT_ASSIGNED_CONTEXT((#294,#290,#289))
REPRESENTATION_CONTEXT('05F58321210','TOP_LEVEL_ASSEMBLY_PART')
);
#288=UNCERTAINTY_MEASURE_WITH_UNIT(LENGTH_MEASURE(2.E-5),#294,
'DISTANCE_ACCURACY_VALUE','Maximum Tolerance applied to model');
#289=(
NAMED_UNIT(*)
SI_UNIT($,.STERADIAN.)
SOLID_ANGLE_UNIT()
);
#290=(
CONVERSION_BASED_UNIT('DEGREE',#292)
NAMED_UNIT(#291)
PLANE_ANGLE_UNIT()
);
#291=DIMENSIONAL_EXPONENTS(0.,0.,0.,0.,0.,0.,0.);
#292=PLANE_ANGLE_MEASURE_WITH_UNIT(PLANE_ANGLE_MEASURE(0.0174532925),#293);
#293=(
NAMED_UNIT(*)
PLANE_ANGLE_UNIT()
SI_UNIT($,.RADIAN.)
);
#294=(
LENGTH_UNIT()
NAMED_UNIT(*)
SI_UNIT(.MILLI.,.METRE.)
);
ENDSEC;
END-ISO-10303-21;
